  0
SECTION
  2
HEADER
  9
$ACADVER
  1
AC1018
  9
$ACADMAINTVER
 70
   104
  9
$DWGCODEPAGE
  3
ANSI_1252
  9
$LASTSAVEDBY
  1
aereyes
  9
$INSBASE
 10
0.0
 20
0.0
 30
0.0
  9
$EXTMIN
 10
0.25
 20
0.2483302711109045
 30
0.0
  9
$EXTMAX
 10
10.71
 20
8.210016413185645
 30
0.0
  9
$LIMMIN
 10
0.0
 20
0.0
  9
$LIMMAX
 10
11.0
 20
8.5
  9
$ORTHOMODE
 70
     0
  9
$REGENMODE
 70
     1
  9
$FILLMODE
 70
     1
  9
$QTEXTMODE
 70
     0
  9
$MIRRTEXT
 70
     1
  9
$LTSCALE
 40
0.25
  9
$ATTMODE
 70
     1
  9
$TEXTSIZE
 40
0.12
  9
$TRACEWID
 40
0.05
  9
$TEXTSTYLE
  7
STANDARD
  9
$CLAYER
  8
DIM
  9
$CELTYPE
  6
BYLAYER
  9
$CECOLOR
 62
   256
  9
$CELTSCALE
 40
1.0
  9
$DISPSILH
 70
     0
  9
$DIMSCALE
 40
0.0
  9
$DIMASZ
 40
0.15
  9
$DIMEXO
 40
0.0625
  9
$DIMDLI
 40
0.38
  9
$DIMRND
 40
0.0
  9
$DIMDLE
 40
0.0
  9
$DIMEXE
 40
0.18
  9
$DIMTP
 40
0.0
  9
$DIMTM
 40
0.0
  9
$DIMTXT
 40
0.125
  9
$DIMCEN
 40
0.09
  9
$DIMTSZ
 40
0.0
  9
$DIMTOL
 70
     0
  9
$DIMLIM
 70
     0
  9
$DIMTIH
 70
     1
  9
$DIMTOH
 70
     1
  9
$DIMSE1
 70
     0
  9
$DIMSE2
 70
     0
  9
$DIMTAD
 70
     0
  9
$DIMZIN
 70
     0
  9
$DIMBLK
  1

  9
$DIMASO
 70
     0
  9
$DIMSHO
 70
     1
  9
$DIMPOST
  1

  9
$DIMAPOST
  1

  9
$DIMALT
 70
     0
  9
$DIMALTD
 70
     2
  9
$DIMALTF
 40
25.4
  9
$DIMLFAC
 40
1.0
  9
$DIMTOFL
 70
     0
  9
$DIMTVP
 40
0.0
  9
$DIMTIX
 70
     0
  9
$DIMSOXD
 70
     0
  9
$DIMSAH
 70
     0
  9
$DIMBLK1
  1

  9
$DIMBLK2
  1

  9
$DIMSTYLE
  2
STANDARD
  9
$DIMCLRD
 70
     1
  9
$DIMCLRE
 70
     1
  9
$DIMCLRT
 70
     7
  9
$DIMTFAC
 40
1.0
  9
$DIMGAP
 40
0.09
  9
$DIMJUST
 70
     0
  9
$DIMSD1
 70
     0
  9
$DIMSD2
 70
     0
  9
$DIMTOLJ
 70
     1
  9
$DIMTZIN
 70
     0
  9
$DIMALTZ
 70
     0
  9
$DIMALTTZ
 70
     0
  9
$DIMUPT
 70
     0
  9
$DIMDEC
 70
     4
  9
$DIMTDEC
 70
     4
  9
$DIMALTU
 70
     2
  9
$DIMALTTD
 70
     2
  9
$DIMTXSTY
  7
STANDARD
  9
$DIMAUNIT
 70
     0
  9
$DIMADEC
 70
     0
  9
$DIMALTRND
 40
0.0
  9
$DIMAZIN
 70
     0
  9
$DIMDSEP
 70
    46
  9
$DIMATFIT
 70
     3
  9
$DIMFRAC
 70
     0
  9
$DIMLDRBLK
  1

  9
$DIMLUNIT
 70
     2
  9
$DIMLWD
 70
    -2
  9
$DIMLWE
 70
    -2
  9
$DIMTMOVE
 70
     0
  9
$LUNITS
 70
     2
  9
$LUPREC
 70
     4
  9
$SKETCHINC
 40
0.1
  9
$FILLETRAD
 40
0.0
  9
$AUNITS
 70
     0
  9
$AUPREC
 70
     0
  9
$MENU
  1
acad
  9
$ELEVATION
 40
0.0
  9
$PELEVATION
 40
0.0
  9
$THICKNESS
 40
0.0
  9
$LIMCHECK
 70
     0
  9
$CHAMFERA
 40
0.0
  9
$CHAMFERB
 40
0.0
  9
$CHAMFERC
 40
0.0
  9
$CHAMFERD
 40
0.0
  9
$SKPOLY
 70
     0
  9
$TDCREATE
 40
2450156.494675000
  9
$TDUCREATE
 40
2450156.703008333
  9
$TDUPDATE
 40
2454821.752215845
  9
$TDUUPDATE
 40
2454821.960549178
  9
$TDINDWG
 40
1.0526667361
  9
$TDUSRTIMER
 40
1.0526667361
  9
$USRTIMER
 70
     1
  9
$ANGBASE
 50
0.0
  9
$ANGDIR
 70
     0
  9
$PDMODE
 70
     0
  9
$PDSIZE
 40
0.0
  9
$PLINEWID
 40
0.0
  9
$SPLFRAME
 70
     0
  9
$SPLINETYPE
 70
     6
  9
$SPLINESEGS
 70
     8
  9
$HANDSEED
  5
E21
  9
$SURFTAB1
 70
     6
  9
$SURFTAB2
 70
     6
  9
$SURFTYPE
 70
     6
  9
$SURFU
 70
     6
  9
$SURFV
 70
     6
  9
$UCSBASE
  2

  9
$UCSNAME
  2

  9
$UCSORG
 10
0.0
 20
0.0
 30
0.0
  9
$UCSXDIR
 10
1.0
 20
0.0
 30
0.0
  9
$UCSYDIR
 10
0.0
 20
1.0
 30
0.0
  9
$UCSORTHOREF
  2

  9
$UCSORTHOVIEW
 70
     0
  9
$UCSORGTOP
 10
0.0
 20
0.0
 30
0.0
  9
$UCSORGBOTTOM
 10
0.0
 20
0.0
 30
0.0
  9
$UCSORGLEFT
 10
0.0
 20
0.0
 30
0.0
  9
$UCSORGRIGHT
 10
0.0
 20
0.0
 30
0.0
  9
$UCSORGFRONT
 10
0.0
 20
0.0
 30
0.0
  9
$UCSORGBACK
 10
0.0
 20
0.0
 30
0.0
  9
$PUCSBASE
  2

  9
$PUCSNAME
  2

  9
$PUCSORG
 10
0.0
 20
0.0
 30
0.0
  9
$PUCSXDIR
 10
1.0
 20
0.0
 30
0.0
  9
$PUCSYDIR
 10
0.0
 20
1.0
 30
0.0
  9
$PUCSORTHOREF
  2

  9
$PUCSORTHOVIEW
 70
     0
  9
$PUCSORGTOP
 10
0.0
 20
0.0
 30
0.0
  9
$PUCSORGBOTTOM
 10
0.0
 20
0.0
 30
0.0
  9
$PUCSORGLEFT
 10
0.0
 20
0.0
 30
0.0
  9
$PUCSORGRIGHT
 10
0.0
 20
0.0
 30
0.0
  9
$PUCSORGFRONT
 10
0.0
 20
0.0
 30
0.0
  9
$PUCSORGBACK
 10
0.0
 20
0.0
 30
0.0
  9
$USERI1
 70
     0
  9
$USERI2
 70
     0
  9
$USERI3
 70
     0
  9
$USERI4
 70
     0
  9
$USERI5
 70
     0
  9
$USERR1
 40
0.0
  9
$USERR2
 40
0.0
  9
$USERR3
 40
0.0
  9
$USERR4
 40
0.0
  9
$USERR5
 40
0.0
  9
$WORLDVIEW
 70
     1
  9
$SHADEDGE
 70
     3
  9
$SHADEDIF
 70
    70
  9
$TILEMODE
 70
     1
  9
$MAXACTVP
 70
    16
  9
$PINSBASE
 10
0.0
 20
0.0
 30
0.0
  9
$PLIMCHECK
 70
     0
  9
$PEXTMIN
 10
1.000000000000000E+20
 20
1.000000000000000E+20
 30
1.000000000000000E+20
  9
$PEXTMAX
 10
-1.000000000000000E+20
 20
-1.000000000000000E+20
 30
-1.000000000000000E+20
  9
$PLIMMIN
 10
0.0
 20
0.0
  9
$PLIMMAX
 10
12.0
 20
9.0
  9
$UNITMODE
 70
     0
  9
$VISRETAIN
 70
     0
  9
$PLINEGEN
 70
     0
  9
$PSLTSCALE
 70
     0
  9
$TREEDEPTH
 70
  3020
  9
$CMLSTYLE
  2
STANDARD
  9
$CMLJUST
 70
     0
  9
$CMLSCALE
 40
1.0
  9
$PROXYGRAPHICS
 70
     1
  9
$MEASUREMENT
 70
     0
  9
$CELWEIGHT
370
    -1
  9
$ENDCAPS
280
     0
  9
$JOINSTYLE
280
     0
  9
$LWDISPLAY
290
     0
  9
$INSUNITS
 70
     0
  9
$HYPERLINKBASE
  1

  9
$STYLESHEET
  1
standard.ctb
  9
$XEDIT
290
     1
  9
$CEPSNTYPE
380
     0
  9
$PSTYLEMODE
290
     1
  9
$FINGERPRINTGUID
  2
{442E81E3-E365-455A-8BFC-A788C710F5E8}
  9
$VERSIONGUID
  2
{28D2799B-B417-41EA-BA19-267DDB4542CF}
  9
$EXTNAMES
290
     1
  9
$PSVPSCALE
 40
0.0
  9
$OLESTARTUP
290
     0
  9
$SORTENTS
280
    96
  9
$INDEXCTL
280
     0
  9
$HIDETEXT
280
     0
  9
$XCLIPFRAME
290
     0
  9
$HALOGAP
280
     0
  9
$OBSCOLOR
 70
   257
  9
$OBSLTYPE
280
     0
  9
$INTERSECTIONDISPLAY
280
     0
  9
$INTERSECTIONCOLOR
 70
   257
  9
$DIMASSOC
280
     0
  9
$PROJECTNAME
  1

  0
ENDSEC
  0
SECTION
  2
CLASSES
  0
CLASS
  1
DICTIONARYVAR
  2
AcDbDictionaryVar
  3
ObjectDBX Classes
 90
        0
 91
        6
280
     0
281
     0
  0
CLASS
  1
ACDBDICTIONARYWDFLT
  2
AcDbDictionaryWithDefault
  3
ObjectDBX Classes
 90
        0
 91
        1
280
     0
281
     0
  0
CLASS
  1
MATERIAL
  2
AcDbMaterial
  3
ObjectDBX Classes
 90
     1153
 91
        3
280
     0
281
     0
  0
CLASS
  1
VISUALSTYLE
  2
AcDbVisualStyle
  3
ObjectDBX Classes
 90
     4095
 91
       16
280
     0
281
     0
  0
CLASS
  1
TABLESTYLE
  2
AcDbTableStyle
  3
ObjectDBX Classes
 90
     4095
 91
        1
280
     0
281
     0
  0
CLASS
  1
SCALE
  2
AcDbScale
  3
ObjectDBX Classes
 90
     1153
 91
       33
280
     0
281
     0
  0
CLASS
  1
MLEADERSTYLE
  2
AcDbMLeaderStyle
  3
ACDB_MLEADERSTYLE_CLASS
 90
     4095
 91
        1
280
     0
281
     0
  0
CLASS
  1
CELLSTYLEMAP
  2
AcDbCellStyleMap
  3
ObjectDBX Classes
 90
     1152
 91
        1
280
     0
281
     0
  0
ENDSEC
  0
SECTION
  2
TABLES
  0
TABLE
  2
VPORT
  5
8
330
0
100
AcDbSymbolTable
 70
     1
  0
VPORT
  5
DB0
330
8
100
AcDbSymbolTableRecord
100
AcDbViewportTableRecord
  2
*Active
 70
     0
 10
0.0
 20
0.0
 11
1.0
 21
1.0
 12
10.52642713153422
 22
4.25
 13
0.0
 23
0.0
 14
0.062
 24
0.062
 15
0.25
 25
0.25
 16
0.0
 26
0.0
 36
1.0
 17
0.0
 27
0.0
 37
0.0
 40
12.61505565370526
 41
1.680522565320664
 42
50.0
 43
0.0
 44
0.0
 50
0.0
 51
0.0
 71
     0
 72
   500
 73
     1
 74
     0
 75
     0
 76
     0
 77
     0
 78
     0
281
     0
 65
     1
110
0.0
120
0.0
130
0.0
111
1.0
121
0.0
131
0.0
112
0.0
122
1.0
132
0.0
 79
     0
146
0.0
  0
ENDTAB
  0
TABLE
  2
LTYPE
  5
5
330
0
100
AcDbSymbolTable
 70
     3
  0
LTYPE
  5
11
330
5
100
AcDbSymbolTableRecord
100
AcDbLinetypeTableRecord
  2
BYBLOCK
 70
     0
  3

 72
    65
 73
     0
 40
0.0
  0
LTYPE
  5
12
330
5
100
AcDbSymbolTableRecord
100
AcDbLinetypeTableRecord
  2
BYLAYER
 70
     0
  3

 72
    65
 73
     0
 40
0.0
  0
LTYPE
  5
13
330
5
100
AcDbSymbolTableRecord
100
AcDbLinetypeTableRecord
  2
CONTINUOUS
 70
     0
  3
Solid line
 72
    65
 73
     0
 40
0.0
  0
LTYPE
  5
1D
330
5
100
AcDbSymbolTableRecord
100
AcDbLinetypeTableRecord
  2
CENTER
 70
     0
  3
____ _ ____ _ ____ _ ____ _ ____ _ ____ _ ____ 
 72
    65
 73
     4
 40
2.0
 49
1.25
 74
     0
 49
-0.25
 74
     0
 49
0.25
 74
     0
 49
-0.25
 74
     0
  0
LTYPE
  5
1E
330
5
100
AcDbSymbolTableRecord
100
AcDbLinetypeTableRecord
  2
HIDDEN
 70
     0
  3
__ __ __ __ __ __ __ __ __ __ __ __ __ __ __ __
 72
    65
 73
     2
 40
0.375
 49
0.25
 74
     0
 49
-0.125
 74
     0
  0
ENDTAB
  0
TABLE
  2
LAYER
  5
2
330
0
100
AcDbSymbolTable
 70
     8
  0
LAYER
  5
E
102
{ACAD_XDICTIONARY
360
E07
102
}
330
2
100
AcDbSymbolTableRecord
100
AcDbLayerTableRecord
  2
0
 70
     0
 62
     7
  6
CONTINUOUS
370
    -3
390
D89
  0
LAYER
  5
21
102
{ACAD_XDICTIONARY
360
E09
102
}
330
2
100
AcDbSymbolTableRecord
100
AcDbLayerTableRecord
  2
FORM
 70
     0
 62
     7
  6
CONTINUOUS
370
    -3
390
D89
  0
LAYER
  5
22
102
{ACAD_XDICTIONARY
360
E0B
102
}
330
2
100
AcDbSymbolTableRecord
100
AcDbLayerTableRecord
  2
CENTER
 70
     0
 62
     3
  6
CENTER
370
    -3
390
D89
  0
LAYER
  5
23
102
{ACAD_XDICTIONARY
360
E0D
102
}
330
2
100
AcDbSymbolTableRecord
100
AcDbLayerTableRecord
  2
DIM
 70
     0
 62
     1
  6
CONTINUOUS
370
    -3
390
D89
  0
LAYER
  5
24
102
{ACAD_XDICTIONARY
360
E0F
102
}
330
2
100
AcDbSymbolTableRecord
100
AcDbLayerTableRecord
  2
HATCH
 70
     0
 62
     4
  6
CONTINUOUS
370
    -3
390
D89
  0
LAYER
  5
25
102
{ACAD_XDICTIONARY
360
E11
102
}
330
2
100
AcDbSymbolTableRecord
100
AcDbLayerTableRecord
  2
HIDDEN
 70
     0
 62
     5
  6
HIDDEN
370
    -3
390
D89
  0
LAYER
  5
26
102
{ACAD_XDICTIONARY
360
E13
102
}
330
2
100
AcDbSymbolTableRecord
100
AcDbLayerTableRecord
  2
OBJECT
 70
     0
 62
     7
  6
CONTINUOUS
370
    -3
390
D89
  0
LAYER
  5
27
102
{ACAD_XDICTIONARY
360
E15
102
}
330
2
100
AcDbSymbolTableRecord
100
AcDbLayerTableRecord
  2
TEXT
 70
     0
 62
     7
  6
CONTINUOUS
370
    -3
390
D89
  0
ENDTAB
  0
TABLE
  2
STYLE
  5
3
330
0
100
AcDbSymbolTable
 70
     4
  0
STYLE
  5
F
330
3
100
AcDbSymbolTableRecord
100
AcDbTextStyleTableRecord
  2
STANDARD
 70
     0
 40
0.0
 41
1.0
 50
0.0
 71
     0
 42
0.12
  3
ROMANS.SHX
  4

  0
STYLE
  5
1C
330
3
100
AcDbSymbolTableRecord
100
AcDbTextStyleTableRecord
  2
ROMANS
 70
     0
 40
0.0
 41
1.0
 50
0.0
 71
     0
 42
0.08
  3
romans
  4

  0
STYLE
  5
B79
330
3
100
AcDbSymbolTableRecord
100
AcDbTextStyleTableRecord
  2
HELV
 70
     0
 40
0.0
 41
1.0
 50
0.0
 71
     0
 42
0.15
  3
HELVMED
  4

  0
STYLE
  5
B7A
330
3
100
AcDbSymbolTableRecord
100
AcDbTextStyleTableRecord
  2
HELR
 70
     0
 40
0.0
 41
1.0
 50
0.0
 71
     0
 42
0.2
  3
HELV
  4

  0
ENDTAB
  0
TABLE
  2
VIEW
  5
6
330
0
100
AcDbSymbolTable
 70
     0
  0
ENDTAB
  0
TABLE
  2
UCS
  5
7
330
0
100
AcDbSymbolTable
 70
     0
  0
ENDTAB
  0
TABLE
  2
APPID
  5
9
330
0
100
AcDbSymbolTable
 70
     2
  0
APPID
  5
10
330
9
100
AcDbSymbolTableRecord
100
AcDbRegAppTableRecord
  2
ACAD
 70
     0
  0
APPID
  5
E04
330
9
100
AcDbSymbolTableRecord
100
AcDbRegAppTableRecord
  2
ACAD_MLEADERVER
 70
     0
  0
ENDTAB
  0
TABLE
  2
DIMSTYLE
  5
A
330
0
100
AcDbSymbolTable
 70
     1
100
AcDbDimStyleTable
 71
     0
  0
DIMSTYLE
105
FA
330
A
100
AcDbSymbolTableRecord
100
AcDbDimStyleTableRecord
  2
STANDARD
 70
     0
340
F
  0
ENDTAB
  0
TABLE
  2
BLOCK_RECORD
  5
1
330
0
100
AcDbSymbolTable
 70
     0
  0
BLOCK_RECORD
  5
17
330
1
100
AcDbSymbolTableRecord
100
AcDbBlockTableRecord
  2
*MODEL_SPACE
340
D8C
  0
BLOCK_RECORD
  5
14
330
1
100
AcDbSymbolTableRecord
100
AcDbBlockTableRecord
  2
*PAPER_SPACE
340
D8D
  0
ENDTAB
  0
ENDSEC
  0
SECTION
  2
BLOCKS
  0
BLOCK
  5
2A
330
17
100
AcDbEntity
  8
0
100
AcDbBlockBegin
  2
*MODEL_SPACE
 70
     0
 10
0.0
 20
0.0
 30
0.0
  3
*MODEL_SPACE
  1

  0
ENDBLK
  5
2B
330
17
100
AcDbEntity
  8
0
100
AcDbBlockEnd
  0
BLOCK
  5
28
330
14
100
AcDbEntity
 67
     1
  8
0
100
AcDbBlockBegin
  2
*PAPER_SPACE
 70
     0
 10
0.0
 20
0.0
 30
0.0
  3
*PAPER_SPACE
  1

  0
ENDBLK
  5
29
330
14
100
AcDbEntity
 67
     1
  8
0
100
AcDbBlockEnd
  0
ENDSEC
  0
SECTION
  2
ENTITIES
  0
LINE
  5
BC7
330
17
100
AcDbEntity
  8
FORM
100
AcDbLine
 10
2.695377489052576
 20
1.989130419728978
 30
0.0
 11
0.25
 21
1.989130419728978
 31
0.0
  0
TEXT
  5
BC8
330
17
100
AcDbEntity
  8
FORM
100
AcDbText
 10
0.9766218010942354
 20
1.831598449722397
 30
0.0
 40
0.09
  1
E.O. N.O.
 72
     4
 11
1.289478943951378
 21
1.876598449722397
 31
0.0
100
AcDbText
  0
TEXT
  5
BC9
330
17
100
AcDbEntity
  8
FORM
100
AcDbText
 10
0.2842857125303047
 20
1.831598449722397
 30
0.0
 40
0.09
  1
REV.
 72
     4
 11
0.4299999982445905
 21
1.876598449722397
 31
0.0
100
AcDbText
  0
TEXT
  5
BCA
330
17
100
AcDbEntity
  8
FORM
100
AcDbText
 10
2.727228862851443
 20
1.755392835964501
 30
0.0
 40
0.05
  1
DIMENSIONS ARE IN INCHES
 72
     1
 11
3.262943148565729
 21
1.755392835964501
 31
0.0
100
AcDbText
  0
TEXT
  5
BCB
330
17
100
AcDbEntity
  8
FORM
100
AcDbText
 10
2.727278038080573
 20
1.588726169297835
 30
0.0
 40
0.05
  1
FRACTION      DECIMALS      ANGLES
 72
     1
 11
3.517754228556763
 21
1.588726169297835
 31
0.0
100
AcDbText
  0
TEXT
  5
BCC
330
17
100
AcDbEntity
  8
FORM
100
AcDbText
 10
2.737399617384427
 20
1.672059502631168
 30
0.0
 40
0.05
  1
TOLERANCES ON
 72
     1
 11
3.043351998336809
 21
1.672059502631168
 31
0.0
100
AcDbText
  0
TEXT
  5
BCD
330
17
100
AcDbEntity
  8
FORM
100
AcDbText
 10
2.723850086181901
 20
0.5138388340507319
 30
0.0
 40
0.07
  1
SCALE
100
AcDbText
  0
TEXT
  5
BCE
330
17
100
AcDbEntity
  8
FORM
100
AcDbText
 10
4.458468624149955
 20
1.872959498187011
 30
0.0
 40
0.07
  1
DWN.
100
AcDbText
  0
TEXT
  5
BCF
330
17
100
AcDbEntity
  8
FORM
100
AcDbText
 10
4.458468624149955
 20
1.398258681090509
 30
0.0
 40
0.07
  1
DATE
100
AcDbText
  0
LINE
  5
BD0
330
17
100
AcDbEntity
  8
FORM
100
AcDbLine
 10
2.695377489052576
 20
1.989130419728978
 30
0.0
 11
4.415211632832586
 21
1.989130419728978
 31
0.0
  0
TEXT
  5
BD1
330
17
100
AcDbEntity
  8
FORM
100
AcDbText
 10
2.97231839781857
 20
1.892684021717673
 30
0.0
 40
0.05
  1
UNLESS OTHERWISE SPECIFIED
 72
     4
 11
3.554461254961427
 21
1.917684021717673
 31
0.0
100
AcDbText
  0
TEXT
  5
BD5
330
17
100
AcDbEntity
  8
FORM
100
AcDbText
 10
7.657869070352465
 20
0.4599197610249633
 30
0.0
 40
0.08
  1
NO.
100
AcDbText
  0
TEXT
  5
BD6
330
17
100
AcDbEntity
  8
FORM
100
AcDbText
 10
7.657869070352465
 20
0.5932530943582961
 30
0.0
 40
0.08
  1
DWG.
100
AcDbText
  0
TEXT
  5
BD8
330
17
100
AcDbEntity
  8
FORM
100
AcDbText
 10
2.030714285468466
 20
1.831598449722397
 30
0.0
 40
0.09
  1
DRAFTER
 72
     4
 11
2.31999999975418
 21
1.876598449722397
 31
0.0
100
AcDbText
  0
TEXT
  5
BD9
330
17
100
AcDbEntity
  8
FORM
100
AcDbText
 10
2.723850086181901
 20
0.8923554340507319
 30
0.0
 40
0.07
  1
FINISH
100
AcDbText
  0
TEXT
  5
BDA
330
17
100
AcDbEntity
  8
FORM
100
AcDbText
 10
2.723850086181901
 20
1.270872034050731
 30
0.0
 40
0.07
  1
MATERIAL
100
AcDbText
  0
TEXT
  5
BDD
330
17
100
AcDbEntity
  8
FORM
100
AcDbText
 10
4.46209378020576
 20
0.8379779333667888
 30
0.0
 40
0.06
  1
THIS DRAWING IS PROPERTY OF THE
 72
     1
 11
5.303522351634332
 21
0.8379779333667888
 31
0.0
100
AcDbText
  0
TEXT
  5
BDF
330
17
100
AcDbEntity
  8
FORM
100
AcDbText
 10
4.686379494491474
 20
0.6436922190810746
 30
0.0
 40
0.06
  1
NOT BE COPIED, USED OR
 72
     1
 11
5.303522351634332
 21
0.6436922190810746
 31
0.0
100
AcDbText
  0
TEXT
  5
BE0
330
17
100
AcDbEntity
  8
FORM
100
AcDbText
 10
4.590665208777189
 20
0.5465493619382174
 30
0.0
 40
0.06
  1
DISCLOSED FOR ANY PURPOSE
 72
     1
 11
5.303522351634332
 21
0.5465493619382174
 31
0.0
100
AcDbText
  0
TEXT
  5
BE1
330
17
100
AcDbEntity
  8
FORM
100
AcDbText
 10
4.477808065920046
 20
0.4494065047953601
 30
0.0
 40
0.06
  1
EXCEPT AS AUTHORIZED IN WRITING
 72
     1
 11
5.303522351634332
 21
0.4494065047953601
 31
0.0
100
AcDbText
  0
TEXT
  5
BE3
330
17
100
AcDbEntity
  8
FORM
100
AcDbText
 10
7.661052896581039
 20
0.2814285576370099
 30
0.0
 40
0.08
  1
SIZE  A  SHEET     OF
 11
7.661052896581039
 21
0.3214285576370099
 31
0.0
100
AcDbText
 73
     2
  0
LINE
  5
BE4
330
17
100
AcDbEntity
  8
FORM
100
AcDbLine
 10
4.426533112099226
 20
1.498081847880708
 30
0.0
 11
6.182221322797538
 21
1.498081847880708
 31
0.0
  0
LINE
  5
BE5
330
17
100
AcDbEntity
  8
FORM
100
AcDbLine
 10
0.25
 20
1.007033276032438
 30
0.0
 11
6.182221322797538
 21
1.007033276032439
 31
0.0
  0
LINE
  5
BE6
330
17
100
AcDbEntity
  8
FORM
100
AcDbLine
 10
0.25
 20
1.989130419728978
 30
0.0
 11
10.71
 21
1.989130419728977
 31
0.0
  0
LINE
  5
BE7
330
17
100
AcDbEntity
  8
FORM
100
AcDbLine
 10
10.71
 20
8.209999999999999
 30
0.0
 11
0.25
 21
8.210016413185645
 31
0.0
  0
LINE
  5
BE8
330
17
100
AcDbEntity
  8
FORM
100
AcDbLine
 10
0.25
 20
8.210016413185645
 30
0.0
 11
0.25
 21
0.25
 31
0.0
  0
LINE
  5
BE9
330
17
100
AcDbEntity
  8
FORM
100
AcDbLine
 10
0.25
 20
0.25
 30
0.0
 11
10.71
 21
0.25
 31
0.0
  0
LINE
  5
BEA
330
17
100
AcDbEntity
  8
FORM
100
AcDbLine
 10
10.71
 20
0.25
 30
0.0
 11
10.71
 21
8.209999999999999
 31
0.0
  0
LINE
  5
BEB
330
17
100
AcDbEntity
  8
FORM
100
AcDbLine
 10
0.25
 20
1.385549876032439
 30
0.0
 11
4.428922508542364
 21
1.385549876032438
 31
0.0
  0
LINE
  5
BEC
330
17
100
AcDbEntity
  8
FORM
100
AcDbLine
 10
0.25
 20
1.764066479715818
 30
0.0
 11
2.68000000138049
 21
1.764066479715818
 31
0.0
  0
LINE
  5
BED
330
17
100
AcDbEntity
  8
FORM
100
AcDbLine
 10
0.25
 20
0.4392583760324392
 30
0.0
 11
2.68000000138049
 21
0.4392583760324389
 31
0.0
  0
LINE
  5
BEE
330
17
100
AcDbEntity
  8
FORM
100
AcDbLine
 10
0.25
 20
0.6285166760324392
 30
0.0
 11
4.428922508542364
 21
0.6285166760324388
 31
0.0
  0
LINE
  5
BEF
330
17
100
AcDbEntity
  8
FORM
100
AcDbLine
 10
0.25
 20
0.817774976032439
 30
0.0
 11
2.68000000138049
 21
0.8177749760324388
 31
0.0
  0
LINE
  5
BF0
330
17
100
AcDbEntity
  8
FORM
100
AcDbLine
 10
0.25
 20
1.196291576032439
 30
0.0
 11
2.68000000138049
 21
1.196291576032438
 31
0.0
  0
LINE
  5
BF1
330
17
100
AcDbEntity
  8
FORM
100
AcDbLine
 10
0.25
 20
1.574808176032439
 30
0.0
 11
2.68000000138049
 21
1.574808176032438
 31
0.0
  0
LINE
  5
BF2
330
17
100
AcDbEntity
  8
FORM
100
AcDbLine
 10
1.95999999812787
 20
1.989130419728978
 30
0.0
 11
1.95999999812787
 21
0.2483302711109045
 31
0.0
  0
LINE
  5
BF3
330
17
100
AcDbEntity
  8
FORM
100
AcDbLine
 10
0.609999996489181
 20
1.989130419728978
 30
0.0
 11
0.609999996489181
 21
0.25
 31
0.0
  0
LINE
  5
BF4
330
17
100
AcDbEntity
  8
FORM
100
AcDbLine
 10
2.68000000138049
 20
1.989130419728978
 30
0.0
 11
2.68000000138049
 21
0.2499999999999999
 31
0.0
  0
LINE
  5
BF5
330
17
100
AcDbEntity
  8
FORM
100
AcDbLine
 10
4.428922508542364
 20
1.989130419728978
 30
0.0
 11
4.428922508542364
 21
0.25
 31
0.0
  0
LINE
  5
BF6
330
17
100
AcDbEntity
  8
FORM
100
AcDbLine
 10
2.68000000138049
 20
1.846237623706368
 30
0.0
 11
4.428922508542364
 21
1.846237623706368
 31
0.0
  0
LINE
  5
BF7
330
17
100
AcDbEntity
  8
FORM
100
AcDbLine
 10
4.428922508542364
 20
1.846237623706368
 30
0.0
 11
4.428922508542364
 21
1.846237623706368
 31
0.0
  0
LINE
  5
BF8
330
17
100
AcDbEntity
  8
FORM
100
AcDbLine
 10
6.182221322797538
 20
0.3928571152740196
 30
0.0
 11
10.24124999999999
 21
0.3928571152740196
 31
0.0
  0
LINE
  5
BF9
330
17
100
AcDbEntity
  8
FORM
100
AcDbLine
 10
10.71
 20
0.739130419728978
 30
0.0
 11
6.182221322797538
 21
0.7391304197289781
 31
0.0
  0
LINE
  5
BFA
330
17
100
AcDbEntity
  8
FORM
100
AcDbLine
 10
6.182221322797538
 20
1.989130419728978
 30
0.0
 11
6.182221322797538
 21
0.25
 31
0.0
  0
LINE
  5
BFB
330
17
100
AcDbEntity
  8
FORM
100
AcDbLine
 10
6.812221322797538
 20
0.7391304197289781
 30
0.0
 11
6.812221322797537
 21
0.25
 31
0.0
  0
LINE
  5
BFC
330
17
100
AcDbEntity
  8
FORM
100
AcDbLine
 10
7.532221322797537
 20
0.7391304197289781
 30
0.0
 11
7.532221322797537
 21
0.25
 31
0.0
  0
LINE
  5
BFD
330
17
100
AcDbEntity
  8
FORM
100
AcDbLine
 10
9.21571735032967
 20
1.989130419728978
 30
0.0
 11
9.215717350329672
 21
0.7391304197289781
 31
0.0
  0
TEXT
  5
C06
330
17
100
AcDbEntity
  8
0
100
AcDbText
 10
10.34610119047619
 20
0.6164179222667118
 30
0.0
 40
0.08
  1
REV.
 72
     4
 11
10.475625
 21
0.6564179222667118
 31
0.0
100
AcDbText
  0
LINE
  5
C07
330
17
100
AcDbEntity
  8
0
100
AcDbLine
 10
10.24124999999999
 20
0.739130419728978
 30
0.0
 11
10.24124999999999
 21
0.25
 31
0.0
  0
LINE
  5
C08
330
17
100
AcDbEntity
  8
0
100
AcDbLine
 10
10.24124999999999
 20
0.5737054248044457
 30
0.0
 11
10.71
 21
0.5737054248044457
 31
0.0
  0
TEXT
  5
C09
330
17
100
AcDbEntity
  8
0
100
AcDbText
 10
10.41610119047619
 20
0.3683483051416797
 30
0.0
 40
0.125
  1
2
 72
     4
 11
10.475625
 21
0.4308483051416797
 31
0.0
100
AcDbText
  0
TEXT
  5
C0A
330
17
100
AcDbEntity
  8
0
100
AcDbText
 10
9.333896903985653
 20
0.2780634965791637
 30
0.0
 40
0.08
  1
1
 72
     4
 11
9.366277856366606
 21
0.3180634965791636
 31
0.0
100
AcDbText
  0
TEXT
  5
C0B
330
17
100
AcDbEntity
  8
0
100
AcDbText
 10
8.882304285335443
 20
0.2878708720998364
 30
0.0
 40
0.08
  1
1
 72
     4
 11
8.914685237716396
 21
0.3278708720998363
 31
0.0
100
AcDbText
  0
TEXT
  5
C0C
330
17
100
AcDbEntity
  8
FORM
100
AcDbText
 10
4.854687249223998
 20
1.650708437636254
 30
0.0
 40
0.09
  1
B. FORTIER
100
AcDbText
  0
TEXT
  5
C0F
330
17
100
AcDbEntity
  8
FORM
100
AcDbText
 10
7.020370346903886
 20
1.623163442772352
 30
0.0
 40
0.2
  1
REFLECTOR
100
AcDbText
  0
TEXT
  5
C10
330
17
100
AcDbEntity
  8
FORM
100
AcDbText
 10
8.227784726103505
 20
0.5041937141522688
 30
0.0
 40
0.15
  1
92-117
100
AcDbText
  0
TEXT
  5
C12
330
17
100
AcDbEntity
  8
FORM
100
AcDbText
 10
4.854687249223998
 20
1.221741701840059
 30
0.0
 40
0.09
  1
10/1/00
100
AcDbText
  0
LINE
  5
C16
330
17
100
AcDbEntity
  8
OBJECT
100
AcDbLine
 10
3.495009112239273
 20
1.170760346989332
 30
0.0
 11
4.07495641081266
 21
1.170760346989332
 31
0.0
  0
LINE
  5
C17
330
17
100
AcDbEntity
  8
OBJECT
100
AcDbLine
 10
3.605686068576602
 20
1.095580614314133
 30
0.0
 11
3.694227675439805
 21
1.237095429071487
 31
0.0
  0
LINE
  5
C18
330
17
100
AcDbEntity
  8
OBJECT
100
AcDbLine
 10
3.773915017133347
 20
1.095580614314133
 30
0.0
 11
3.86245662399655
 21
1.237095429071487
 31
0.0
  0
LINE
  5
C19
330
17
100
AcDbEntity
  8
OBJECT
100
AcDbLine
 10
3.495009112239273
 20
0.825818028233769
 30
0.0
 11
4.07495641081266
 21
0.825818028233769
 31
0.0
  0
LINE
  5
C1A
330
17
100
AcDbEntity
  8
OBJECT
100
AcDbLine
 10
3.773915017133347
 20
0.75063829555857
 30
0.0
 11
3.86245662399655
 21
0.8921531103159239
 31
0.0
  0
LINE
  5
C1B
330
17
100
AcDbEntity
  8
OBJECT
100
AcDbLine
 10
3.605686068576602
 20
0.75063829555857
 30
0.0
 11
3.694227675439805
 21
0.8921531103159239
 31
0.0
  0
LINE
  5
C25
330
17
100
AcDbEntity
  8
OBJECT
100
AcDbLine
 10
5.232040846246366
 20
3.702182968240895
 30
0.0
 11
5.232040846246366
 21
6.654932968240895
 31
0.0
  0
LINE
  5
C26
330
17
100
AcDbEntity
  8
OBJECT
100
AcDbLine
 10
5.232040846246366
 20
3.702182968240895
 30
0.0
 11
7.611640846246366
 21
3.702182968240895
 31
0.0
  0
LINE
  5
C27
330
17
100
AcDbEntity
  8
OBJECT
100
AcDbLine
 10
7.611640846246366
 20
3.702182968240895
 30
0.0
 11
7.611640846246366
 21
6.654932968240895
 31
0.0
  0
LINE
  5
C29
330
17
100
AcDbEntity
  8
OBJECT
100
AcDbLine
 10
5.232040846246365
 20
6.654932968240895
 30
0.0
 11
7.611640846246364
 21
6.654932968240895
 31
0.0
  0
CIRCLE
  5
C30
330
17
100
AcDbEntity
  8
OBJECT
100
AcDbCircle
 10
5.350165846246367
 20
6.536807968240895
 30
0.0
 40
0.05175
  0
CIRCLE
  5
C31
330
17
100
AcDbEntity
  8
OBJECT
100
AcDbCircle
 10
7.493515846246365
 20
3.820307968240896
 30
0.0
 40
0.05175
  0
LINE
  5
C32
102
{ACAD_REACTORS
330
D83
102
}
330
17
100
AcDbEntity
  8
OBJECT
100
AcDbLine
 10
7.545265846246365
 20
3.989009304118713
 30
0.0
 11
7.545265846246367
 21
6.588557968240895
 31
0.0
  0
LINE
  5
C33
330
17
100
AcDbEntity
  8
OBJECT
100
AcDbLine
 10
7.324876943224142
 20
3.768557968240895
 30
0.0
 11
5.298440846246367
 21
3.768557968240896
 31
0.0
  0
LINE
  5
C34
330
17
100
AcDbEntity
  8
OBJECT
100
AcDbLine
 10
5.229240842725653
 20
6.368657968240895
 30
0.0
 11
5.229240842725653
 21
3.768557968240895
 31
0.0
  0
LINE
  5
C35
330
17
100
AcDbEntity
  8
OBJECT
100
AcDbLine
 10
5.518315846246369
 20
6.588557968240896
 30
0.0
 11
7.545265846246365
 21
6.588557968240895
 31
0.0
  0
LINE
  5
C39
330
17
100
AcDbEntity
  8
OBJECT
100
AcDbLine
 10
3.148214188654064
 20
3.702182968240895
 30
0.0
 11
3.039509985251827
 21
3.702182968240895
 31
0.0
  0
LINE
  5
C3A
330
17
100
AcDbEntity
  8
OBJECT
100
AcDbLine
 10
3.148214188654064
 20
6.654932968240895
 30
0.0
 11
2.979921362049076
 21
6.654932968240895
 31
0.0
  0
LINE
  5
C3B
330
17
100
AcDbEntity
  8
OBJECT
100
AcDbLine
 10
3.148214188654064
 20
3.702182968240895
 30
0.0
 11
3.148214188654064
 21
6.654932968240895
 31
0.0
  0
LINE
  5
C3C
330
17
100
AcDbEntity
  8
OBJECT
100
AcDbLine
 10
2.979921362049076
 20
3.940293867900308
 30
0.0
 11
2.979921362049076
 21
6.654932968240895
 31
0.0
  0
LINE
  5
C40
330
17
100
AcDbEntity
  8
CENTER
100
AcDbLine
 10
3.226911028434278
 20
6.536807968240895
 30
0.0
 11
3.04698073424791
 21
6.536807968240895
 31
0.0
  0
LINE
  5
C41
330
17
100
AcDbEntity
  8
CENTER
100
AcDbLine
 10
3.227214395766077
 20
3.820307968240896
 30
0.0
 11
3.082733920321913
 21
3.820307968240896
 31
0.0
  0
LINE
  5
C42
330
17
100
AcDbEntity
  8
HIDDEN
100
AcDbLine
 10
3.148214188654064
 20
6.588557968240895
 30
0.0
 11
2.979921362049076
 21
6.588557968240896
 31
0.0
  0
LINE
  5
C43
330
17
100
AcDbEntity
  8
HIDDEN
100
AcDbLine
 10
3.148214188654064
 20
6.485057968240894
 30
0.0
 11
2.979921362049076
 21
6.485057968240895
 31
0.0
  0
LINE
  5
C44
330
17
100
AcDbEntity
  8
HIDDEN
100
AcDbLine
 10
3.148214188654064
 20
3.768557968240896
 30
0.0
 11
3.039509985251827
 21
3.768557968240896
 31
0.0
  0
LINE
  5
C45
330
17
100
AcDbEntity
  8
HIDDEN
100
AcDbLine
 10
3.148214188654064
 20
3.872057968240895
 30
0.0
 11
3.039509985251827
 21
3.872057968240895
 31
0.0
  0
LINE
  5
CA2
330
17
100
AcDbEntity
  8
OBJECT
100
AcDbLine
 10
3.11975061449498
 20
3.993883421522454
 30
0.0
 11
3.11975061449498
 21
6.363731965877803
 31
0.0
  0
LINE
  5
CA6
330
17
100
AcDbEntity
  8
DIM
 62
     1
100
AcDbLine
 10
5.232040846246366
 20
6.701807968240895
 30
0.0
 11
5.232040846246366
 21
7.508440759307239
 31
0.0
  0
LINE
  5
CA7
330
17
100
AcDbEntity
  8
DIM
 62
     1
100
AcDbLine
 10
7.611640846246366
 20
6.701807968240895
 30
0.0
 11
7.611640846246366
 21
7.508440759307239
 31
0.0
  0
LINE
  5
CA8
330
17
100
AcDbEntity
  8
DIM
 62
     1
100
AcDbLine
 10
5.344540846246367
 20
7.373440759307239
 30
0.0
 11
6.143029735448905
 21
7.373440759307239
 31
0.0
  0
LINE
  5
CA9
330
17
100
AcDbEntity
  8
DIM
 62
     1
100
AcDbLine
 10
7.611640846246366
 20
7.373440759307241
 30
0.0
 11
6.672406281877943
 21
7.373440759307239
 31
0.0
  0
SOLID
  5
CAA
330
17
100
AcDbEntity
  8
DIM
 62
     1
100
AcDbTrace
 10
5.344540846246367
 20
7.39219075930724
 30
0.0
 11
5.344540846246367
 21
7.354690759307239
 31
0.0
 12
5.232040846246366
 22
7.373440759307239
 32
0.0
 13
5.232040846246366
 23
7.373440759307239
 33
0.0
  0
SOLID
  5
CAB
330
17
100
AcDbEntity
  8
DIM
 62
     1
100
AcDbTrace
 10
7.499140846246366
 20
7.39219075930724
 30
0.0
 11
7.499140846246366
 21
7.354690759307239
 31
0.0
 12
7.611640846246366
 22
7.373440759307239
 32
0.0
 13
7.611640846246366
 23
7.373440759307239
 33
0.0
  0
MTEXT
  5
CAC
330
17
100
AcDbEntity
  8
DIM
 62
     7
100
AcDbMText
 10
6.412566092576579
 20
7.373440759307239
 30
0.0
 40
0.09375
 41
0.0
 71
     5
 72
     1
  1
40
 73
     1
 44
1.0
  0
LINE
  5
CAD
330
17
100
AcDbEntity
  8
DIM
 62
     1
100
AcDbLine
 10
5.350165846246367
 20
6.583682968240895
 30
0.0
 11
5.350165846246367
 21
7.137338889461666
 31
0.0
  0
LINE
  5
CAE
102
{ACAD_REACTORS
330
D83
102
}
330
17
100
AcDbEntity
  8
DIM
 62
     1
100
AcDbLine
 10
7.493515846246365
 20
3.867182968240896
 30
0.0
 11
7.493515846246365
 21
7.137338889461666
 31
0.0
  0
LINE
  5
CAF
330
17
100
AcDbEntity
  8
DIM
 62
     1
100
AcDbLine
 10
5.462665846246367
 20
7.002338889461666
 30
0.0
 11
6.04287120189037
 21
7.002338889461666
 31
0.0
  0
LINE
  5
CB0
330
17
100
AcDbEntity
  8
DIM
 62
     1
100
AcDbLine
 10
7.493515846246365
 20
7.002338889461666
 30
0.0
 11
6.754593769442683
 21
7.002338889461666
 31
0.0
  0
SOLID
  5
CB1
330
17
100
AcDbEntity
  8
DIM
 62
     1
100
AcDbTrace
 10
5.462665846246367
 20
7.021088889461667
 30
0.0
 11
5.462665846246367
 21
6.983588889461666
 31
0.0
 12
5.350165846246367
 22
7.002338889461666
 32
0.0
 13
5.350165846246367
 23
7.002338889461666
 33
0.0
  0
SOLID
  5
CB2
330
17
100
AcDbEntity
  8
DIM
 62
     1
100
AcDbTrace
 10
7.381015846246365
 20
7.021088889461667
 30
0.0
 11
7.381015846246365
 21
6.983588889461666
 31
0.0
 12
7.493515846246365
 22
7.002338889461666
 32
0.0
 13
7.493515846246365
 23
7.002338889461666
 33
0.0
  0
MTEXT
  5
CB3
330
17
100
AcDbEntity
  8
DIM
 62
     7
100
AcDbMText
 10
6.412566092576579
 20
7.002338889461666
 30
0.0
 40
0.09375
 41
0.0
 71
     5
 72
     1
  1
34 ±0.5
 73
     1
 44
1.0
  0
MTEXT
  5
CB4
330
17
100
AcDbEntity
  8
DIM
 62
     7
100
AcDbMText
 10
6.412566092576579
 20
7.214397104420465
 30
0.0
 40
0.09375
 41
0.0
 71
     5
 72
     1
  1
(1.575)
 73
     1
 44
1.0
  0
MTEXT
  5
CB5
330
17
100
AcDbEntity
  8
DIM
 62
     7
100
AcDbMText
 10
6.412566092576579
 20
6.843295234574892
 30
0.0
 40
0.09375
 41
0.0
 71
     5
 72
     1
  1
(1.339)
 73
     1
 44
1.0
  0
LINE
  5
CB6
330
17
100
AcDbEntity
  8
DIM
 62
     1
100
AcDbLine
 10
5.492584766413866
 20
6.536807968240895
 30
0.0
 11
8.216995716079338
 21
6.536807968240894
 31
0.0
  0
LINE
  5
CB7
330
17
100
AcDbEntity
  8
DIM
 62
     1
100
AcDbLine
 10
7.540390846246365
 20
3.820307968240896
 30
0.0
 11
8.216995716079338
 21
3.820307968240896
 31
0.0
  0
LINE
  5
CB8
330
17
100
AcDbEntity
  8
DIM
 62
     1
100
AcDbLine
 10
8.081995716079338
 20
6.424307968240894
 30
0.0
 11
8.081995716079338
 21
5.611020278014443
 31
0.0
  0
LINE
  5
CB9
330
17
100
AcDbEntity
  8
DIM
 62
     1
100
AcDbLine
 10
8.081995716079338
 20
3.932807968240895
 30
0.0
 11
8.081995716079338
 21
5.064182968240894
 31
0.0
  0
SOLID
  5
CBA
330
17
100
AcDbEntity
  8
DIM
 62
     1
100
AcDbTrace
 10
8.063245716079338
 20
6.424307968240894
 30
0.0
 11
8.100745716079339
 21
6.424307968240894
 31
0.0
 12
8.081995716079338
 22
6.536807968240894
 32
0.0
 13
8.081995716079338
 23
6.536807968240894
 33
0.0
  0
SOLID
  5
CBB
330
17
100
AcDbEntity
  8
DIM
 62
     1
100
AcDbTrace
 10
8.063245716079338
 20
3.932807968240895
 30
0.0
 11
8.100745716079339
 21
3.932807968240895
 31
0.0
 12
8.081995716079338
 22
3.820307968240896
 32
0.0
 13
8.081995716079338
 23
3.820307968240896
 33
0.0
  0
MTEXT
  5
CBC
330
17
100
AcDbEntity
  8
DIM
 62
     7
100
AcDbMText
 10
8.081995716079338
 20
5.456884370625075
 30
0.0
 40
0.09375
 41
0.0
 71
     5
 72
     1
  1
52 ±0.5
 73
     1
 44
1.0
  0
LINE
  5
CBD
330
17
100
AcDbEntity
  8
DIM
 62
     1
100
AcDbLine
 10
7.658515846246366
 20
3.702182968240895
 30
0.0
 11
8.800781035427981
 21
3.702182968240895
 31
0.0
  0
LINE
  5
CBE
330
17
100
AcDbEntity
  8
DIM
 62
     1
100
AcDbLine
 10
7.658515846246366
 20
6.654932968240895
 30
0.0
 11
8.800781035427981
 21
6.654932968240895
 31
0.0
  0
LINE
  5
CBF
330
17
100
AcDbEntity
  8
DIM
 62
     1
100
AcDbLine
 10
8.665781035427981
 20
3.814682968240895
 30
0.0
 11
8.665781035427981
 21
4.812363845892729
 31
0.0
  0
LINE
  5
CC0
330
17
100
AcDbEntity
  8
DIM
 62
     1
100
AcDbLine
 10
8.665781035427981
 20
6.542432968240896
 30
0.0
 11
8.665781035427981
 21
5.292932968240895
 31
0.0
  0
SOLID
  5
CC1
330
17
100
AcDbEntity
  8
DIM
 62
     1
100
AcDbTrace
 10
8.64703103542798
 20
3.814682968240895
 30
0.0
 11
8.684531035427982
 21
3.814682968240895
 31
0.0
 12
8.665781035427981
 22
3.702182968240895
 32
0.0
 13
8.665781035427981
 23
3.702182968240895
 33
0.0
  0
SOLID
  5
CC2
330
17
100
AcDbEntity
  8
DIM
 62
     1
100
AcDbTrace
 10
8.64703103542798
 20
6.542432968240896
 30
0.0
 11
8.684531035427982
 21
6.542432968240896
 31
0.0
 12
8.665781035427981
 22
6.654932968240895
 32
0.0
 13
8.665781035427981
 23
6.654932968240895
 33
0.0
  0
MTEXT
  5
CC3
330
17
100
AcDbEntity
  8
DIM
 62
     7
100
AcDbMText
 10
8.665781035427981
 20
5.178557968240895
 30
0.0
 40
0.09375
 41
0.0
 71
     5
 72
     1
  1
60
 73
     1
 44
1.0
  0
MTEXT
  5
CC4
330
17
100
AcDbEntity
  8
DIM
 62
     7
100
AcDbMText
 10
8.682692684814707
 20
4.974532232664389
 30
0.0
 40
0.09375
 41
0.0
 71
     5
 72
     1
  1
(2.362)
 73
     1
 44
1.0
  0
MTEXT
  5
CC5
330
17
100
AcDbEntity
  8
DIM
 62
     7
100
AcDbMText
 10
8.085639498302068
 20
5.239604982365909
 30
0.0
 40
0.09375
 41
0.0
 71
     5
 72
     1
  1
(2.047)
 73
     1
 44
1.0
  0
LINE
  5
CCF
330
17
100
AcDbEntity
  8
DIM
 62
     1
100
AcDbLine
 10
2.980150823150815
 20
6.701807968240895
 30
0.0
 11
2.980150823150815
 21
7.309636171701805
 31
0.0
  0
LINE
  5
CD0
330
17
100
AcDbEntity
  8
DIM
 62
     1
100
AcDbLine
 10
3.148214188654064
 20
6.701807968240895
 30
0.0
 11
3.148214188654064
 21
7.309636171701805
 31
0.0
  0
LINE
  5
CD1
330
17
100
AcDbEntity
  8
DIM
 62
     1
100
AcDbLine
 10
2.867650823150815
 20
7.174636171701806
 30
0.0
 11
2.755150823150815
 21
7.174636171701806
 31
0.0
  0
LINE
  5
CD2
330
17
100
AcDbEntity
  8
DIM
 62
     1
100
AcDbLine
 10
3.260714188654064
 20
7.174636171701806
 30
0.0
 11
3.373214188654063
 21
7.174636171701806
 31
0.0
  0
SOLID
  5
CD3
330
17
100
AcDbEntity
  8
DIM
 62
     1
100
AcDbTrace
 10
2.867650823150815
 20
7.193386171701806
 30
0.0
 11
2.867650823150815
 21
7.155886171701805
 31
0.0
 12
2.980150823150815
 22
7.174636171701806
 32
0.0
 13
2.980150823150815
 23
7.174636171701806
 33
0.0
  0
SOLID
  5
CD4
330
17
100
AcDbEntity
  8
DIM
 62
     1
100
AcDbTrace
 10
3.260714188654064
 20
7.193386171701806
 30
0.0
 11
3.260714188654064
 21
7.155886171701805
 31
0.0
 12
3.148214188654064
 22
7.174636171701806
 32
0.0
 13
3.148214188654064
 23
7.174636171701806
 33
0.0
  0
MTEXT
  5
CD5
330
17
100
AcDbEntity
  8
DIM
 62
     7
100
AcDbMText
 10
2.583437349401125
 20
7.174636171701806
 30
0.0
 40
0.09375
 41
0.0
 71
     5
 72
     1
  1
4.8
 73
     1
 44
1.0
  0
MTEXT
  5
CD6
330
17
100
AcDbEntity
  8
DIM
 62
     7
100
AcDbMText
 10
2.582725949122833
 20
7.012390114114625
 30
0.0
 40
0.09375
 41
0.0
 71
     5
 72
     1
  1
(.189)
 73
     1
 44
1.0
  0
LINE
  5
CE1
330
17
100
AcDbEntity
  8
OBJECT
100
AcDbLine
 10
3.495009112239273
 20
0.437044620550271
 30
0.0
 11
4.07495641081266
 21
0.437044620550271
 31
0.0
  0
LINE
  5
CE2
330
17
100
AcDbEntity
  8
OBJECT
100
AcDbLine
 10
3.773915017133347
 20
0.3618648878750719
 30
0.0
 11
3.86245662399655
 21
0.5033797026324259
 31
0.0
  0
LINE
  5
CE3
330
17
100
AcDbEntity
  8
OBJECT
100
AcDbLine
 10
3.605686068576602
 20
0.3618648878750719
 30
0.0
 11
3.694227675439805
 21
0.5033797026324259
 31
0.0
  0
LINE
  5
CEE
330
17
100
AcDbEntity
  8
DIM
 62
     1
100
AcDbLine
 10
5.260165846246367
 20
6.536807968240895
 30
0.0
 11
5.440165846246367
 21
6.536807968240895
 31
0.0
  0
LINE
  5
CEF
330
17
100
AcDbEntity
  8
DIM
 62
     1
100
AcDbLine
 10
5.350165846246367
 20
6.403682968240895
 30
0.0
 11
5.350165846246367
 21
6.583682968240895
 31
0.0
  0
LINE
  5
CF0
330
17
100
AcDbEntity
  8
DIM
 62
     1
100
AcDbLine
 10
7.403515846246365
 20
3.820307968240896
 30
0.0
 11
7.583515846246365
 21
3.820307968240896
 31
0.0
  0
LINE
  5
CF1
330
17
100
AcDbEntity
  8
DIM
 62
     1
100
AcDbLine
 10
7.493515846246365
 20
3.730307968240896
 30
0.0
 11
7.493515846246365
 21
3.910307968240895
 31
0.0
  0
LINE
  5
D1A
330
17
100
AcDbEntity
  8
OBJECT
100
AcDbLine
 10
5.468315846246367
 20
6.654932968240895
 30
0.0
 11
5.468315846246367
 21
6.418657968240895
 31
0.0
  0
LINE
  5
D1B
330
17
100
AcDbEntity
  8
OBJECT
100
AcDbLine
 10
5.232040846246366
 20
6.418657968240895
 30
0.0
 11
5.468315846246367
 21
6.418657968240895
 31
0.0
  0
LINE
  5
D1E
102
{ACAD_REACTORS
330
D83
102
}
330
17
100
AcDbEntity
  8
OBJECT
100
AcDbLine
 10
5.298440846246367
 20
6.368657968240896
 30
0.0
 11
7.545265846246367
 21
6.368657968240905
 31
0.0
  0
LINE
  5
D1F
330
17
100
AcDbEntity
  8
OBJECT
100
AcDbLine
 10
5.518315846246368
 20
6.588557968240895
 30
0.0
 11
5.518315846246367
 21
6.368657968240897
 31
0.0
  0
LINE
  5
D2C
330
17
100
AcDbEntity
  8
OBJECT
100
AcDbLine
 10
7.374876943224141
 20
3.702734304118713
 30
0.0
 11
7.374876943224141
 21
3.939009304118713
 31
0.0
  0
LINE
  5
D2D
330
17
100
AcDbEntity
  8
OBJECT
100
AcDbLine
 10
7.611151943224141
 20
3.939009304118714
 30
0.0
 11
7.374876943224141
 21
3.939009304118713
 31
0.0
  0
LINE
  5
D2E
102
{ACAD_REACTORS
330
D83
102
}
330
17
100
AcDbEntity
  8
OBJECT
100
AcDbLine
 10
7.545265846246364
 20
3.989009304118713
 30
0.0
 11
5.298440846246365
 21
3.989009304118708
 31
0.0
  0
LINE
  5
D2F
330
17
100
AcDbEntity
  8
OBJECT
100
AcDbLine
 10
7.32487694322414
 20
3.768557968240895
 30
0.0
 11
7.324876943224142
 21
3.989009304118713
 31
0.0
  0
TEXT
  5
D37
330
17
100
AcDbEntity
  8
FORM
100
AcDbText
 10
7.387419310917278
 20
1.237227381783601
 30
0.0
 40
0.2
  1
MICRO
100
AcDbText
  0
LINE
  5
D3F
330
17
100
AcDbEntity
  8
DIM
 62
     1
100
AcDbLine
 10
4.55476122515162
 20
6.368657968240897
 30
0.0
 11
5.250725941330069
 21
6.368657968240896
 31
0.0
  0
LINE
  5
D40
330
17
100
AcDbEntity
  8
DIM
 62
     1
100
AcDbLine
 10
4.55263597289268
 20
3.98900930411871
 30
0.0
 11
5.257887615386055
 21
3.98900930411871
 31
0.0
  0
LINE
  5
D41
330
17
100
AcDbEntity
  8
DIM
 62
     1
100
AcDbLine
 10
4.693416686398762
 20
4.101509304118709
 30
0.0
 11
4.693416686398762
 21
5.069708037024564
 31
0.0
  0
SOLID
  5
D42
330
17
100
AcDbEntity
  8
DIM
 62
     1
100
AcDbTrace
 10
4.674666686398762
 20
4.101509304118709
 30
0.0
 11
4.712166686398763
 21
4.101509304118709
 31
0.0
 12
4.693416686398762
 22
3.98900930411871
 32
0.0
 13
4.693416686398762
 23
3.98900930411871
 33
0.0
  0
LINE
  5
D43
330
17
100
AcDbEntity
  8
DIM
 62
     1
100
AcDbLine
 10
4.693416686398762
 20
6.256157968240896
 30
0.0
 11
4.693416686398762
 21
5.606046545108589
 31
0.0
  0
SOLID
  5
D44
330
17
100
AcDbEntity
  8
DIM
 62
     1
100
AcDbTrace
 10
4.674666686398762
 20
6.256157968240896
 30
0.0
 11
4.712166686398763
 21
6.256157968240896
 31
0.0
 12
4.693416686398762
 22
6.368657968240896
 32
0.0
 13
4.693416686398762
 23
6.368657968240896
 33
0.0
  0
MTEXT
  5
D45
330
17
100
AcDbEntity
  8
DIM
 62
     7
100
AcDbMText
 10
4.66487299131902
 20
5.456884370625075
 30
0.0
 40
0.09375
 41
0.0
 71
     5
 72
     1
  1
40
 73
     1
 44
1.0
  0
MTEXT
  5
D46
330
17
100
AcDbEntity
  8
DIM
 62
     7
100
AcDbMText
 10
4.66851677354175
 20
5.239604982365909
 30
0.0
 40
0.09375
 41
0.0
 71
     5
 72
     1
  1
(1.575)
 73
     1
 44
1.0
  0
LINE
  5
D51
330
17
100
AcDbEntity
  8
OBJECT
100
AcDbLine
 10
3.039509985251826
 20
3.702182968240895
 30
0.0
 11
3.039509985251826
 21
6.485057968240894
 31
0.0
  0
LINE
  5
D52
330
17
100
AcDbEntity
  8
OBJECT
100
AcDbLine
 10
3.039509985251826
 20
6.588557968240894
 30
0.0
 11
3.039509985251826
 21
6.654932968240895
 31
0.0
  0
LINE
  5
D53
330
17
100
AcDbEntity
  8
OBJECT
100
AcDbLine
 10
3.148214188654064
 20
6.363731965877803
 30
0.0
 11
3.11975061449498
 21
6.363731965877803
 31
0.0
  0
LINE
  5
D54
330
17
100
AcDbEntity
  8
OBJECT
100
AcDbLine
 10
3.148214188654064
 20
3.993883421522454
 30
0.0
 11
3.11975061449498
 21
3.993883421522454
 31
0.0
  0
LINE
  5
D55
330
17
100
AcDbEntity
  8
OBJECT
100
AcDbLine
 10
3.148214188654064
 20
3.940293867900308
 30
0.0
 11
2.979921362049076
 21
3.940293867900308
 31
0.0
  0
LINE
  5
D56
330
17
100
AcDbEntity
  8
CENTER
100
AcDbLine
 10
3.005268700080726
 20
6.536807968240895
 30
0.0
 11
2.861599750228135
 21
6.536807968240895
 31
0.0
  0
LINE
  5
D57
330
17
100
AcDbEntity
  8
CENTER
100
AcDbLine
 10
3.041021886154737
 20
3.820307968240896
 30
0.0
 11
2.862289340167814
 21
3.820307968240896
 31
0.0
  0
LINE
  5
D58
330
17
100
AcDbEntity
  8
DIM
 62
     1
100
AcDbLine
 10
3.039509985251826
 20
3.639682968240894
 30
0.0
 11
3.039509985251826
 21
3.291307744786573
 31
0.0
  0
LINE
  5
D59
330
17
100
AcDbEntity
  8
DIM
 62
     1
100
AcDbLine
 10
3.148214188654064
 20
3.639682968240895
 30
0.0
 11
3.148214188654064
 21
3.291307744786573
 31
0.0
  0
LINE
  5
D5A
330
17
100
AcDbEntity
  8
DIM
 62
     1
100
AcDbLine
 10
2.889509985251826
 20
3.471307744786573
 30
0.0
 11
2.739509985251826
 21
3.471307744786573
 31
0.0
  0
LINE
  5
D5B
330
17
100
AcDbEntity
  8
DIM
 62
     1
100
AcDbLine
 10
3.298214188654064
 20
3.471307744786573
 30
0.0
 11
3.448214188654064
 21
3.471307744786573
 31
0.0
  0
SOLID
  5
D5C
330
17
100
AcDbEntity
  8
DIM
 62
     1
100
AcDbTrace
 10
2.889509985251826
 20
3.496307744786573
 30
0.0
 11
2.889509985251826
 21
3.446307744786573
 31
0.0
 12
3.039509985251826
 22
3.471307744786573
 32
0.0
 13
3.039509985251826
 23
3.471307744786573
 33
0.0
  0
SOLID
  5
D5D
330
17
100
AcDbEntity
  8
DIM
 62
     1
100
AcDbTrace
 10
3.298214188654064
 20
3.496307744786573
 30
0.0
 11
3.298214188654064
 21
3.446307744786573
 31
0.0
 12
3.148214188654064
 22
3.471307744786573
 32
0.0
 13
3.148214188654064
 23
3.471307744786573
 33
0.0
  0
MTEXT
  5
D5E
330
17
100
AcDbEntity
  8
DIM
 62
     7
100
AcDbMText
 10
3.669166569606445
 20
3.471307744786573
 30
0.0
 40
0.09375
 41
0.0
 71
     5
 72
     1
  1
\A1;3.5
 73
     1
 44
1.0
  0
LINE
  5
D5F
330
17
100
AcDbEntity
  8
DIM
 62
     1
100
AcDbLine
 10
2.939391435059562
 20
3.872057968240896
 30
0.0
 11
2.180649380073908
 21
3.872057968240896
 31
0.0
  0
LINE
  5
D60
330
17
100
AcDbEntity
  8
DIM
 62
     1
100
AcDbLine
 10
2.939391435059562
 20
3.768557968240896
 30
0.0
 11
2.180649380073908
 21
3.768557968240896
 31
0.0
  0
LINE
  5
D61
330
17
100
AcDbEntity
  8
DIM
 62
     1
100
AcDbLine
 10
2.360649380073908
 20
4.022057968240896
 30
0.0
 11
2.360649380073908
 21
4.172057968240896
 31
0.0
  0
LINE
  5
D62
330
17
100
AcDbEntity
  8
DIM
 62
     1
100
AcDbLine
 10
2.360649380073908
 20
3.618557968240896
 30
0.0
 11
2.360649380073908
 21
3.468557968240896
 31
0.0
  0
LINE
  5
D63
330
17
100
AcDbEntity
  8
DIM
 62
     1
100
AcDbLine
 10
2.360649380073908
 20
4.172057968240896
 30
0.0
 11
2.210649380073909
 21
4.172057968240896
 31
0.0
  0
SOLID
  5
D64
330
17
100
AcDbEntity
  8
DIM
 62
     1
100
AcDbTrace
 10
2.335649380073908
 20
4.022057968240896
 30
0.0
 11
2.385649380073908
 21
4.022057968240896
 31
0.0
 12
2.360649380073908
 22
3.872057968240896
 32
0.0
 13
2.360649380073908
 23
3.872057968240896
 33
0.0
  0
SOLID
  5
D65
330
17
100
AcDbEntity
  8
DIM
 62
     1
100
AcDbTrace
 10
2.335649380073908
 20
3.618557968240896
 30
0.0
 11
2.385649380073908
 21
3.618557968240896
 31
0.0
 12
2.360649380073908
 22
3.768557968240896
 32
0.0
 13
2.360649380073908
 23
3.768557968240896
 33
0.0
  0
MTEXT
  5
D66
330
17
100
AcDbEntity
  8
DIM
 62
     7
100
AcDbMText
 10
1.807563063748386
 20
4.173376930840308
 30
0.0
 40
0.09375
 41
0.0
 71
     5
 72
     1
  1
3.5 +0.15
 73
     1
 44
1.0
  0
MTEXT
  5
D67
330
17
100
AcDbEntity
  8
DIM
 62
     7
100
AcDbMText
 10
3.685899550757316
 20
3.330108704250447
 30
0.0
 40
0.09375
 41
0.0
 71
     5
 72
     1
  1
(.138)
 73
     1
 44
1.0
  0
MTEXT
  5
D68
330
17
100
AcDbEntity
  8
DIM
 62
     7
100
AcDbMText
 10
1.723361328936846
 20
4.008598883953181
 30
0.0
 40
0.09375
 41
0.0
 71
     5
 72
     1
  1
(.138)
 73
     1
 44
1.0
  0
LINE
  5
D77
102
{ACAD_REACTORS
330
D83
102
}
330
17
100
AcDbEntity
  8
OBJECT
100
AcDbLine
 10
5.298440846246366
 20
3.768557968240896
 30
0.0
 11
5.298440846246366
 21
6.368657968240897
 31
0.0
  0
HATCH
  5
D83
330
17
100
AcDbEntity
  8
DIM
100
AcDbHatch
 10
0.0
 20
0.0
 30
0.0
210
0.0
220
0.0
230
1.0
  2
HONEY
 70
     0
 71
     1
 91
        2
 92
        7
 72
     0
 73
     1
 93
        4
 10
5.298440846246367
 20
6.368657968240896
 10
5.298440846246366
 20
3.989009304118708
 10
7.493515846246365
 20
3.989009304118714
 10
7.493515846246365
 20
6.368657968240905
 97
        4
330
D1E
330
D77
330
D2E
330
CAE
 92
        7
 72
     0
 73
     1
 93
        4
 10
7.545265846246367
 20
6.368657968240905
 10
7.493515846246365
 20
6.368657968240905
 10
7.493515846246365
 20
3.989009304118713
 10
7.545265846246365
 20
3.989009304118713
 97
        4
330
D1E
330
CAE
330
D2E
330
C32
 75
     0
 76
     1
 52
0.0
 41
0.2
 77
     0
 78
     3
 53
0.0
 43
-1.356983921220162
 44
0.0
 45
0.0375
 46
0.021650635
 79
     2
 49
0.025
 49
-0.05
 53
120.0
 43
-1.356983921220162
 44
0.0
 45
-0.0374999999180645
 46
0.0216506351419165
 79
     2
 49
0.025
 49
-0.05
 53
60.0
 43
-1.356983921220162
 44
0.0
 45
0.0000000000819355
 46
0.0433012701419165
 79
     2
 49
-0.05
 49
0.025
 47
0.0071563223082549
 98
        2
 10
6.644025351403577
 20
6.347828954862784
 10
7.532075303876112
 20
6.211858827202199
  0
TEXT
  5
D9C
330
17
100
AcDbEntity
  8
FORM
100
AcDbText
 10
4.536379494491475
 20
0.7408350762239318
 30
0.0
 40
0.06
  1
ROCKWELL AUTOMATION AND MAY
 72
     1
 11
5.303522351634332
 21
0.7408350762239318
 31
0.0
100
AcDbText
  0
TEXT
  5
D9D
330
17
100
AcDbEntity
  8
FORM
100
AcDbText
 10
4.673522351634332
 20
0.3522636476525029
 30
0.0
 40
0.06
  1
BY ROCKWELL AUTOMATION.
 72
     1
 11
5.303522351634332
 21
0.3522636476525029
 31
0.0
100
AcDbText
  0
MTEXT
  5
DAA
330
17
100
AcDbEntity
  8
DIM
 62
     7
100
AcDbMText
 10
5.308950151995341
 20
3.051283364039961
 30
0.0
 40
0.125
 41
0.0
 71
     1
 72
     1
  1
1. UNLESS OTHERWISE SPECIFIED ALL\PDIMENSIONS ARE mm (INCHES)\PAND ARE FOR REFERENCE ONLY.
 73
     1
 44
1.0
  0
MTEXT
  5
DAB
330
17
100
AcDbEntity
  8
DIM
 62
     7
100
AcDbMText
 10
4.897782419345078
 20
3.54486408911027
 30
0.0
 40
0.125
 41
0.0
 71
     1
 72
     1
  1
NOTES:
 73
     1
 44
1.0
  0
TEXT
  5
DAC
330
17
100
AcDbEntity
  8
FORM
100
AcDbText
 10
9.294506914046444
 20
1.041900775029183
 30
0.0
 40
0.07
  1
CHELMSFORD, MA. 01824
100
AcDbText
  0
TEXT
  5
DAD
330
17
100
AcDbEntity
  8
FORM
100
AcDbText
 10
9.418841673999887
 20
1.199271220002631
 30
0.0
 40
0.07
  1
2 EXECUTIVE DRIVE
100
AcDbText
  0
TEXT
  5
DAE
330
17
100
AcDbEntity
  8
FORM
100
AcDbText
 10
9.266258142847716
 20
1.406147490675127
 30
0.0
 40
0.15
  1
AUTOMATION
100
AcDbText
  0
TEXT
  5
DAF
330
17
100
AcDbEntity
  8
FORM
100
AcDbText
 10
9.266258142847716
 20
1.619433408912847
 30
0.0
 40
0.15
  1
ROCKWELL
100
AcDbText
  0
ENDSEC
  0
SECTION
  2
OBJECTS
  0
DICTIONARY
  5
C
330
0
100
AcDbDictionary
281
     1
  3
ACAD_COLOR
350
DDD
  3
ACAD_GROUP
350
D
  3
ACAD_LAYOUT
350
D8A
  3
ACAD_MATERIAL
350
DB3
  3
ACAD_MLEADERSTYLE
350
E02
  3
ACAD_MLINESTYLE
350
1A
  3
ACAD_PLOTSETTINGS
350
D8B
  3
ACAD_PLOTSTYLENAME
350
D88
  3
ACAD_SCALELIST
350
DE0
  3
ACAD_TABLESTYLE
350
DDE
  3
ACAD_VISUALSTYLE
350
DCC
  3
ACDB_RECOMPOSE_DATA
350
E1C
  3
ACDBVARIABLEDICTIONARY
350
2C
  0
DICTIONARY
  5
E07
330
E
100
AcDbDictionary
280
     1
281
     1
  3
ADSK_XREC_LAYER_RECONCILED
360
E08
  0
DICTIONARY
  5
E09
330
21
100
AcDbDictionary
280
     1
281
     1
  3
ADSK_XREC_LAYER_RECONCILED
360
E0A
  0
DICTIONARY
  5
E0B
330
22
100
AcDbDictionary
280
     1
281
     1
  3
ADSK_XREC_LAYER_RECONCILED
360
E0C
  0
DICTIONARY
  5
E0D
330
23
100
AcDbDictionary
280
     1
281
     1
  3
ADSK_XREC_LAYER_RECONCILED
360
E0E
  0
DICTIONARY
  5
E0F
330
24
100
AcDbDictionary
280
     1
281
     1
  3
ADSK_XREC_LAYER_RECONCILED
360
E10
  0
DICTIONARY
  5
E11
330
25
100
AcDbDictionary
280
     1
281
     1
  3
ADSK_XREC_LAYER_RECONCILED
360
E12
  0
DICTIONARY
  5
E13
330
26
100
AcDbDictionary
280
     1
281
     1
  3
ADSK_XREC_LAYER_RECONCILED
360
E14
  0
DICTIONARY
  5
E15
330
27
100
AcDbDictionary
280
     1
281
     1
  3
ADSK_XREC_LAYER_RECONCILED
360
E16
  0
DICTIONARY
  5
DDD
102
{ACAD_REACTORS
330
C
102
}
330
C
100
AcDbDictionary
281
     1
  0
DICTIONARY
  5
D
102
{ACAD_REACTORS
330
C
102
}
330
C
100
AcDbDictionary
281
     1
  0
DICTIONARY
  5
D8A
102
{ACAD_REACTORS
330
C
102
}
330
C
100
AcDbDictionary
281
     1
  3
Layout1
350
D8D
  3
Model
350
D8C
  0
DICTIONARY
  5
DB3
102
{ACAD_REACTORS
330
C
102
}
330
C
100
AcDbDictionary
281
     1
  3
ByBlock
350
DBC
  3
ByLayer
350
DB4
  3
Global
350
DC4
  0
DICTIONARY
  5
E02
102
{ACAD_REACTORS
330
C
102
}
330
C
100
AcDbDictionary
281
     1
  3
Standard
350
E03
  0
DICTIONARY
  5
1A
102
{ACAD_REACTORS
330
C
102
}
330
C
100
AcDbDictionary
281
     1
  3
STANDARD
350
1B
  0
DICTIONARY
  5
D8B
102
{ACAD_REACTORS
330
C
102
}
330
C
100
AcDbDictionary
281
     1
  0
ACDBDICTIONARYWDFLT
  5
D88
102
{ACAD_REACTORS
330
C
102
}
330
C
100
AcDbDictionary
281
     1
  3
Normal
350
D89
100
AcDbDictionaryWithDefault
340
D89
  0
DICTIONARY
  5
DE0
102
{ACAD_REACTORS
330
C
102
}
330
C
100
AcDbDictionary
281
     1
  3
A0
350
DE1
  3
A1
350
DE2
  3
A2
350
DE3
  3
A3
350
DE4
  3
A4
350
DE5
  3
A5
350
DE6
  3
A6
350
DE7
  3
A7
350
DE8
  3
A8
350
DE9
  3
A9
350
DEA
  3
B0
350
DEB
  3
B1
350
DEC
  3
B2
350
DED
  3
B3
350
DEE
  3
B4
350
DEF
  3
B5
350
DF0
  3
B6
350
DF1
  3
B7
350
DF2
  3
B8
350
DF3
  3
B9
350
DF4
  3
C0
350
DF5
  3
C1
350
DF6
  3
C2
350
DF7
  3
C3
350
DF8
  3
C4
350
DF9
  3
C5
350
DFA
  3
C6
350
DFB
  3
C7
350
DFC
  3
C8
350
DFD
  3
C9
350
DFE
  3
D0
350
DFF
  3
D1
350
E00
  3
D2
350
E01
  0
DICTIONARY
  5
DDE
102
{ACAD_REACTORS
330
C
102
}
330
C
100
AcDbDictionary
281
     1
  3
Standard
350
DDF
  0
DICTIONARY
  5
DCC
102
{ACAD_REACTORS
330
C
102
}
330
C
100
AcDbDictionary
281
     1
  3
2dWireframe
350
DD2
  3
3D Hidden
350
DD4
  3
3dWireframe
350
DD3
  3
Basic
350
DD1
  3
Brighten
350
DD8
  3
ColorChange
350
DDC
  3
Conceptual
350
DD5
  3
Dim
350
DD7
  3
Facepattern
350
DDB
  3
Flat
350
DCD
  3
FlatWithEdges
350
DCE
  3
Gouraud
350
DCF
  3
GouraudWithEdges
350
DD0
  3
Linepattern
350
DDA
  3
Realistic
350
DD6
  3
Thicken
350
DD9
  0
XRECORD
  5
E1C
102
{ACAD_REACTORS
330
C
102
}
330
C
100
AcDbXrecord
280
     1
 90
        1
330
DDF
  0
DICTIONARY
  5
2C
102
{ACAD_REACTORS
330
C
102
}
330
C
100
AcDbDictionary
281
     1
  3
CANNOSCALE
350
E19
  3
CMLEADERSTYLE
350
E18
  3
CTABLESTYLE
350
E17
  3
DIMADEC
350
2D
  3
DIMASSOC
350
DB1
  3
SORTENTS
350
18C
  0
XRECORD
  5
E08
102
{ACAD_REACTORS
330
E07
102
}
330
E07
100
AcDbXrecord
280
     1
290
     1
  0
XRECORD
  5
E0A
102
{ACAD_REACTORS
330
E09
102
}
330
E09
100
AcDbXrecord
280
     1
290
     1
  0
XRECORD
  5
E0C
102
{ACAD_REACTORS
330
E0B
102
}
330
E0B
100
AcDbXrecord
280
     1
290
     1
  0
XRECORD
  5
E0E
102
{ACAD_REACTORS
330
E0D
102
}
330
E0D
100
AcDbXrecord
280
     1
290
     1
  0
XRECORD
  5
E10
102
{ACAD_REACTORS
330
E0F
102
}
330
E0F
100
AcDbXrecord
280
     1
290
     1
  0
XRECORD
  5
E12
102
{ACAD_REACTORS
330
E11
102
}
330
E11
100
AcDbXrecord
280
     1
290
     1
  0
XRECORD
  5
E14
102
{ACAD_REACTORS
330
E13
102
}
330
E13
100
AcDbXrecord
280
     1
290
     1
  0
XRECORD
  5
E16
102
{ACAD_REACTORS
330
E15
102
}
330
E15
100
AcDbXrecord
280
     1
290
     1
  0
LAYOUT
  5
D8D
102
{ACAD_REACTORS
330
D8A
102
}
330
D8A
100
AcDbPlotSettings
  1

  2
Fax
  4

  6

 40
0.0
 41
0.0
 42
0.0
 43
0.0
 44
0.0
 45
0.0
 46
0.0
 47
0.0
 48
0.0
 49
0.0
140
0.0
141
0.0
142
1.0
143
1.0
 70
   688
 72
     0
 73
     0
 74
     5
  7
standard.ctb
 75
    16
147
1.0
 76
     0
 77
     2
 78
   300
148
0.0
149
0.0
100
AcDbLayout
  1
Layout1
 70
     0
 71
     1
 10
0.0
 20
0.0
 11
12.0
 21
9.0
 12
0.0
 22
0.0
 32
0.0
 14
1.000000000000000E+20
 24
1.000000000000000E+20
 34
1.000000000000000E+20
 15
-1.000000000000000E+20
 25
-1.000000000000000E+20
 35
-1.000000000000000E+20
146
0.0
 13
0.0
 23
0.0
 33
0.0
 16
1.0
 26
0.0
 36
0.0
 17
0.0
 27
1.0
 37
0.0
 76
     0
330
14
  0
LAYOUT
  5
D8C
102
{ACAD_REACTORS
330
D8A
102
}
330
D8A
100
AcDbPlotSettings
  1

  2
\\PRINT\LJ4P
  4
Letter
  6

 40
7.143749713897705
 41
6.127734661102294
 42
7.14373779296875
 43
7.14373779296875
 44
215.8999938964844
 45
279.3999938964844
 46
0.0
 47
0.0
 48
0.0
 49
0.0
140
0.0
141
0.0
142
1.0
143
1.003119969975157
 70
 11952
 72
     0
 73
     1
 74
     1
  7
standard.ctb
 75
     0
147
0.9968897339614974
 76
     0
 77
     2
 78
   300
148
-6.343799486039062
149
-6.302135214607808
100
AcDbLayout
  1
Model
 70
     1
 71
     0
 10
0.0
 20
0.0
 11
12.0
 21
9.0
 12
0.0
 22
0.0
 32
0.0
 14
0.0
 24
0.0
 34
0.0
 15
0.0
 25
0.0
 35
0.0
146
0.0
 13
0.0
 23
0.0
 33
0.0
 16
1.0
 26
0.0
 36
0.0
 17
0.0
 27
1.0
 37
0.0
 76
     0
330
17
331
DB0
  0
MATERIAL
  5
DBC
102
{ACAD_XDICTIONARY
360
DBD
102
}
102
{ACAD_REACTORS
330
DB3
102
}
330
DB3
100
AcDbMaterial
  1
ByBlock
 72
     0
 43
0.0208333333333333
 43
0.0
 43
0.0
 43
0.0
 43
0.0
 43
0.0208333333333333
 43
0.0
 43
0.0
 43
0.0
 43
0.0
 43
1.0
 43
0.0
 43
0.0
 43
0.0
 43
0.0
 43
1.0
 77
     0
 47
0.0208333333333333
 47
0.0
 47
0.0
 47
0.0
 47
0.0
 47
0.0208333333333333
 47
0.0
 47
0.0
 47
0.0
 47
0.0
 47
1.0
 47
0.0
 47
0.0
 47
0.0
 47
0.0
 47
1.0
171
     0
 49
0.0208333333333333
 49
0.0
 49
0.0
 49
0.0
 49
0.0
 49
0.0208333333333333
 49
0.0
 49
0.0
 49
0.0
 49
0.0
 49
1.0
 49
0.0
 49
0.0
 49
0.0
 49
0.0
 49
1.0
175
     0
142
0.0208333333333333
142
0.0
142
0.0
142
0.0
142
0.0
142
0.0208333333333333
142
0.0
142
0.0
142
0.0
142
0.0
142
1.0
142
0.0
142
0.0
142
0.0
142
0.0
142
1.0
179
     0
144
0.0208333333333333
144
0.0
144
0.0
144
0.0
144
0.0
144
0.0208333333333333
144
0.0
144
0.0
144
0.0
144
0.0
144
1.0
144
0.0
144
0.0
144
0.0
144
0.0
144
1.0
147
0.0208333333333333
147
0.0
147
0.0
147
0.0
147
0.0
147
0.0208333333333333
147
0.0
147
0.0
147
0.0
147
0.0
147
1.0
147
0.0
147
0.0
147
0.0
147
0.0
147
1.0
  0
MATERIAL
  5
DB4
102
{ACAD_XDICTIONARY
360
DB5
102
}
102
{ACAD_REACTORS
330
DB3
102
}
330
DB3
100
AcDbMaterial
  1
ByLayer
 72
     0
 43
0.0208333333333333
 43
0.0
 43
0.0
 43
0.0
 43
0.0
 43
0.0208333333333333
 43
0.0
 43
0.0
 43
0.0
 43
0.0
 43
1.0
 43
0.0
 43
0.0
 43
0.0
 43
0.0
 43
1.0
 77
     0
 47
0.0208333333333333
 47
0.0
 47
0.0
 47
0.0
 47
0.0
 47
0.0208333333333333
 47
0.0
 47
0.0
 47
0.0
 47
0.0
 47
1.0
 47
0.0
 47
0.0
 47
0.0
 47
0.0
 47
1.0
171
     0
 49
0.0208333333333333
 49
0.0
 49
0.0
 49
0.0
 49
0.0
 49
0.0208333333333333
 49
0.0
 49
0.0
 49
0.0
 49
0.0
 49
1.0
 49
0.0
 49
0.0
 49
0.0
 49
0.0
 49
1.0
175
     0
142
0.0208333333333333
142
0.0
142
0.0
142
0.0
142
0.0
142
0.0208333333333333
142
0.0
142
0.0
142
0.0
142
0.0
142
1.0
142
0.0
142
0.0
142
0.0
142
0.0
142
1.0
179
     0
144
0.0208333333333333
144
0.0
144
0.0
144
0.0
144
0.0
144
0.0208333333333333
144
0.0
144
0.0
144
0.0
144
0.0
144
1.0
144
0.0
144
0.0
144
0.0
144
0.0
144
1.0
147
0.0208333333333333
147
0.0
147
0.0
147
0.0
147
0.0
147
0.0208333333333333
147
0.0
147
0.0
147
0.0
147
0.0
147
1.0
147
0.0
147
0.0
147
0.0
147
0.0
147
1.0
  0
MATERIAL
  5
DC4
102
{ACAD_XDICTIONARY
360
DC5
102
}
102
{ACAD_REACTORS
330
DB3
102
}
330
DB3
100
AcDbMaterial
  1
Global
 72
     0
 43
0.0208333333333333
 43
0.0
 43
0.0
 43
0.0
 43
0.0
 43
0.0208333333333333
 43
0.0
 43
0.0
 43
0.0
 43
0.0
 43
1.0
 43
0.0
 43
0.0
 43
0.0
 43
0.0
 43
1.0
 77
     0
 47
0.0208333333333333
 47
0.0
 47
0.0
 47
0.0
 47
0.0
 47
0.0208333333333333
 47
0.0
 47
0.0
 47
0.0
 47
0.0
 47
1.0
 47
0.0
 47
0.0
 47
0.0
 47
0.0
 47
1.0
171
     0
 49
0.0208333333333333
 49
0.0
 49
0.0
 49
0.0
 49
0.0
 49
0.0208333333333333
 49
0.0
 49
0.0
 49
0.0
 49
0.0
 49
1.0
 49
0.0
 49
0.0
 49
0.0
 49
0.0
 49
1.0
175
     0
142
0.0208333333333333
142
0.0
142
0.0
142
0.0
142
0.0
142
0.0208333333333333
142
0.0
142
0.0
142
0.0
142
0.0
142
1.0
142
0.0
142
0.0
142
0.0
142
0.0
142
1.0
179
     0
144
0.0208333333333333
144
0.0
144
0.0
144
0.0
144
0.0
144
0.0208333333333333
144
0.0
144
0.0
144
0.0
144
0.0
144
1.0
144
0.0
144
0.0
144
0.0
144
0.0
144
1.0
147
0.0208333333333333
147
0.0
147
0.0
147
0.0
147
0.0
147
0.0208333333333333
147
0.0
147
0.0
147
0.0
147
0.0
147
1.0
147
0.0
147
0.0
147
0.0
147
0.0
147
1.0
  0
MLEADERSTYLE
  5
E03
102
{ACAD_REACTORS
330
E02
102
}
330
E02
100
AcDbMLeaderStyle
170
     2
171
     1
172
     0
 90
        2
 40
0.0
 41
0.0
173
     1
 91
-1056964608
340
11
 92
       -2
290
     1
 42
0.09
291
     1
 43
0.36
  3
Standard
 44
0.18
300

342
F
174
     1
178
     6
175
     1
176
     0
 93
-1056964608
 45
0.18
292
     0
297
     0
 46
0.18
 94
-1056964608
 47
1.0
 49
1.0
140
1.0
293
     1
141
0.0
294
     1
177
     0
142
1.0
295
     0
296
     0
143
0.125
1001
ACAD_MLEADERVER
1070
     2
  0
MLINESTYLE
  5
1B
102
{ACAD_REACTORS
330
1A
102
}
330
1A
100
AcDbMlineStyle
  2
STANDARD
 70
     0
  3

 62
   256
 51
90.0
 52
90.0
 71
     2
 49
0.5
 62
   256
  6
BYLAYER
 49
-0.5
 62
   256
  6
BYLAYER
  0
ACDBPLACEHOLDER
  5
D89
102
{ACAD_REACTORS
330
D88
102
}
330
D88
  0
SCALE
  5
DE1
102
{ACAD_REACTORS
330
DE0
102
}
330
DE0
100
AcDbScale
 70
     0
300
1:1
140
1.0
141
1.0
290
     1
  0
SCALE
  5
DE2
102
{ACAD_REACTORS
330
DE0
102
}
330
DE0
100
AcDbScale
 70
     0
300
1:2
140
1.0
141
2.0
290
     0
  0
SCALE
  5
DE3
102
{ACAD_REACTORS
330
DE0
102
}
330
DE0
100
AcDbScale
 70
     0
300
1:4
140
1.0
141
4.0
290
     0
  0
SCALE
  5
DE4
102
{ACAD_REACTORS
330
DE0
102
}
330
DE0
100
AcDbScale
 70
     0
300
1:5
140
1.0
141
5.0
290
     0
  0
SCALE
  5
DE5
102
{ACAD_REACTORS
330
DE0
102
}
330
DE0
100
AcDbScale
 70
     0
300
1:8
140
1.0
141
8.0
290
     0
  0
SCALE
  5
DE6
102
{ACAD_REACTORS
330
DE0
102
}
330
DE0
100
AcDbScale
 70
     0
300
1:10
140
1.0
141
10.0
290
     0
  0
SCALE
  5
DE7
102
{ACAD_REACTORS
330
DE0
102
}
330
DE0
100
AcDbScale
 70
     0
300
1:16
140
1.0
141
16.0
290
     0
  0
SCALE
  5
DE8
102
{ACAD_REACTORS
330
DE0
102
}
330
DE0
100
AcDbScale
 70
     0
300
1:20
140
1.0
141
20.0
290
     0
  0
SCALE
  5
DE9
102
{ACAD_REACTORS
330
DE0
102
}
330
DE0
100
AcDbScale
 70
     0
300
1:30
140
1.0
141
30.0
290
     0
  0
SCALE
  5
DEA
102
{ACAD_REACTORS
330
DE0
102
}
330
DE0
100
AcDbScale
 70
     0
300
1:40
140
1.0
141
40.0
290
     0
  0
SCALE
  5
DEB
102
{ACAD_REACTORS
330
DE0
102
}
330
DE0
100
AcDbScale
 70
     0
300
1:50
140
1.0
141
50.0
290
     0
  0
SCALE
  5
DEC
102
{ACAD_REACTORS
330
DE0
102
}
330
DE0
100
AcDbScale
 70
     0
300
1:100
140
1.0
141
100.0
290
     0
  0
SCALE
  5
DED
102
{ACAD_REACTORS
330
DE0
102
}
330
DE0
100
AcDbScale
 70
     0
300
2:1
140
2.0
141
1.0
290
     0
  0
SCALE
  5
DEE
102
{ACAD_REACTORS
330
DE0
102
}
330
DE0
100
AcDbScale
 70
     0
300
4:1
140
4.0
141
1.0
290
     0
  0
SCALE
  5
DEF
102
{ACAD_REACTORS
330
DE0
102
}
330
DE0
100
AcDbScale
 70
     0
300
8:1
140
8.0
141
1.0
290
     0
  0
SCALE
  5
DF0
102
{ACAD_REACTORS
330
DE0
102
}
330
DE0
100
AcDbScale
 70
     0
300
10:1
140
10.0
141
1.0
290
     0
  0
SCALE
  5
DF1
102
{ACAD_REACTORS
330
DE0
102
}
330
DE0
100
AcDbScale
 70
     0
300
100:1
140
100.0
141
1.0
290
     0
  0
SCALE
  5
DF2
102
{ACAD_REACTORS
330
DE0
102
}
330
DE0
100
AcDbScale
 70
     0
300
1/128" = 1'-0"
140
0.0078125
141
12.0
290
     0
  0
SCALE
  5
DF3
102
{ACAD_REACTORS
330
DE0
102
}
330
DE0
100
AcDbScale
 70
     0
300
1/64" = 1'-0"
140
0.015625
141
12.0
290
     0
  0
SCALE
  5
DF4
102
{ACAD_REACTORS
330
DE0
102
}
330
DE0
100
AcDbScale
 70
     0
300
1/32" = 1'-0"
140
0.03125
141
12.0
290
     0
  0
SCALE
  5
DF5
102
{ACAD_REACTORS
330
DE0
102
}
330
DE0
100
AcDbScale
 70
     0
300
1/16" = 1'-0"
140
0.0625
141
12.0
290
     0
  0
SCALE
  5
DF6
102
{ACAD_REACTORS
330
DE0
102
}
330
DE0
100
AcDbScale
 70
     0
300
3/32" = 1'-0"
140
0.09375
141
12.0
290
     0
  0
SCALE
  5
DF7
102
{ACAD_REACTORS
330
DE0
102
}
330
DE0
100
AcDbScale
 70
     0
300
1/8" = 1'-0"
140
0.125
141
12.0
290
     0
  0
SCALE
  5
DF8
102
{ACAD_REACTORS
330
DE0
102
}
330
DE0
100
AcDbScale
 70
     0
300
3/16" = 1'-0"
140
0.1875
141
12.0
290
     0
  0
SCALE
  5
DF9
102
{ACAD_REACTORS
330
DE0
102
}
330
DE0
100
AcDbScale
 70
     0
300
1/4" = 1'-0"
140
0.25
141
12.0
290
     0
  0
SCALE
  5
DFA
102
{ACAD_REACTORS
330
DE0
102
}
330
DE0
100
AcDbScale
 70
     0
300
3/8" = 1'-0"
140
0.375
141
12.0
290
     0
  0
SCALE
  5
DFB
102
{ACAD_REACTORS
330
DE0
102
}
330
DE0
100
AcDbScale
 70
     0
300
1/2" = 1'-0"
140
0.5
141
12.0
290
     0
  0
SCALE
  5
DFC
102
{ACAD_REACTORS
330
DE0
102
}
330
DE0
100
AcDbScale
 70
     0
300
3/4" = 1'-0"
140
0.75
141
12.0
290
     0
  0
SCALE
  5
DFD
102
{ACAD_REACTORS
330
DE0
102
}
330
DE0
100
AcDbScale
 70
     0
300
1" = 1'-0"
140
1.0
141
12.0
290
     0
  0
SCALE
  5
DFE
102
{ACAD_REACTORS
330
DE0
102
}
330
DE0
100
AcDbScale
 70
     0
300
1-1/2" = 1'-0"
140
1.5
141
12.0
290
     0
  0
SCALE
  5
DFF
102
{ACAD_REACTORS
330
DE0
102
}
330
DE0
100
AcDbScale
 70
     0
300
3" = 1'-0"
140
3.0
141
12.0
290
     0
  0
SCALE
  5
E00
102
{ACAD_REACTORS
330
DE0
102
}
330
DE0
100
AcDbScale
 70
     0
300
6" = 1'-0"
140
6.0
141
12.0
290
     0
  0
SCALE
  5
E01
102
{ACAD_REACTORS
330
DE0
102
}
330
DE0
100
AcDbScale
 70
     0
300
1'-0" = 1'-0"
140
12.0
141
12.0
290
     0
  0
TABLESTYLE
  5
DDF
102
{ACAD_XDICTIONARY
360
E1A
102
}
102
{ACAD_REACTORS
330
DDE
102
}
330
DDE
100
AcDbTableStyle
  3
Standard
 70
     0
 71
     0
 40
0.06
 41
0.06
280
     0
281
     0
  7
STANDARD
140
0.18
170
     2
 62
     0
 63
     7
283
     0
274
    -2
284
     1
 64
     0
275
    -2
285
     1
 65
     0
276
    -2
286
     1
 66
     0
277
    -2
287
     1
 67
     0
278
    -2
288
     1
 68
     0
279
    -2
289
     1
 69
     0
  7
STANDARD
140
0.25
170
     5
 62
     0
 63
     7
283
     0
274
    -2
284
     1
 64
     0
275
    -2
285
     1
 65
     0
276
    -2
286
     1
 66
     0
277
    -2
287
     1
 67
     0
278
    -2
288
     1
 68
     0
279
    -2
289
     1
 69
     0
  7
STANDARD
140
0.18
170
     5
 62
     0
 63
     7
283
     0
274
    -2
284
     1
 64
     0
275
    -2
285
     1
 65
     0
276
    -2
286
     1
 66
     0
277
    -2
287
     1
 67
     0
278
    -2
288
     1
 68
     0
279
    -2
289
     1
 69
     0
  0
VISUALSTYLE
  5
DD2
102
{ACAD_REACTORS
330
DCC
102
}
330
DCC
100
AcDbVisualStyle
  2
2dWireframe
 70
     4
 71
     0
 72
     2
 73
     0
 90
        0
 40
-0.6
 41
-30.0
 62
     5
 63
     7
421
 16777215
 74
     1
 91
        4
 64
     7
 65
   257
 75
     1
175
     1
 42
1.0
 92
        0
 66
   257
 43
1.0
 76
     1
 77
     6
 78
     2
 67
     7
 79
     5
170
     0
171
     0
290
     0
174
     0
 93
        1
 44
0.0
173
     0
291
     0
 45
0.0
1001
ACAD
1000
AcDbSavedByObjectVersion
1070
     0
  0
VISUALSTYLE
  5
DD4
102
{ACAD_REACTORS
330
DCC
102
}
330
DCC
100
AcDbVisualStyle
  2
3D Hidden
 70
     6
 71
     1
 72
     2
 73
     2
 90
        0
 40
-0.6
 41
-30.0
 62
     5
 63
     7
421
 16777215
 74
     2
 91
        2
 64
     7
 65
   257
 75
     2
175
     1
 42
40.0
 92
        0
 66
   257
 43
1.0
 76
     1
 77
     6
 78
     2
 67
     7
 79
     3
170
     0
171
     0
290
     0
174
     0
 93
        1
 44
0.0
173
     0
291
     0
 45
0.0
1001
ACAD
1000
AcDbSavedByObjectVersion
1070
     0
  0
VISUALSTYLE
  5
DD3
102
{ACAD_REACTORS
330
DCC
102
}
330
DCC
100
AcDbVisualStyle
  2
3dWireframe
 70
     5
 71
     0
 72
     2
 73
     0
 90
        0
 40
-0.6
 41
-30.0
 62
     5
 63
     7
421
 16777215
 74
     1
 91
        4
 64
     7
 65
   257
 75
     1
175
     1
 42
1.0
 92
        0
 66
   257
 43
1.0
 76
     1
 77
     6
 78
     2
 67
     7
 79
     5
170
     0
171
     0
290
     0
174
     0
 93
        1
 44
0.0
173
     0
291
     0
 45
0.0
1001
ACAD
1000
AcDbSavedByObjectVersion
1070
     0
  0
VISUALSTYLE
  5
DD1
102
{ACAD_REACTORS
330
DCC
102
}
330
DCC
100
AcDbVisualStyle
  2
Basic
 70
     7
 71
     1
 72
     0
 73
     1
 90
        0
 40
-0.6
 41
-30.0
 62
     5
 63
     7
421
 16777215
 74
     0
 91
        4
 64
     7
 65
   257
 75
     1
175
     1
 42
1.0
 92
        8
 66
     7
 43
1.0
 76
     1
 77
     6
 78
     2
 67
     7
 79
     5
170
     0
171
     0
290
     0
174
     0
 93
        1
 44
0.0
173
     0
291
     1
 45
0.0
1001
ACAD
1000
AcDbSavedByObjectVersion
1070
     0
  0
VISUALSTYLE
  5
DD8
102
{ACAD_REACTORS
330
DCC
102
}
330
DCC
100
AcDbVisualStyle
  2
Brighten
 70
    12
 71
     2
 72
     2
 73
     0
 90
        0
 40
-0.6
 41
-30.0
 62
     5
 63
     7
421
 16777215
 74
     1
 91
        4
 64
     7
 65
   257
 75
     1
175
     1
 42
1.0
 92
        8
 66
     7
 43
1.0
 76
     1
 77
     6
 78
     2
 67
     7
 79
     5
170
     0
171
     0
290
     0
174
     0
 93
        1
 44
50.0
173
     0
291
     1
 45
0.0
1001
ACAD
1000
AcDbSavedByObjectVersion
1070
     0
  0
VISUALSTYLE
  5
DDC
102
{ACAD_REACTORS
330
DCC
102
}
330
DCC
100
AcDbVisualStyle
  2
ColorChange
 70
    16
 71
     2
 72
     2
 73
     3
 90
        0
 40
-0.6
 41
-30.0
 62
     5
 63
     8
421
  8421504
 74
     1
 91
        4
 64
     7
 65
   257
 75
     1
175
     1
 42
1.0
 92
        8
 66
     8
424
  8421504
 43
1.0
 76
     1
 77
     6
 78
     2
 67
     7
 79
     5
170
     0
171
     0
290
     0
174
     0
 93
        1
 44
0.0
173
     0
291
     1
 45
0.0
1001
ACAD
1000
AcDbSavedByObjectVersion
1070
     0
  0
VISUALSTYLE
  5
DD5
102
{ACAD_REACTORS
330
DCC
102
}
330
DCC
100
AcDbVisualStyle
  2
Conceptual
 70
     9
 71
     3
 72
     2
 73
     0
 90
        0
 40
-0.6
 41
-30.0
 62
     5
 63
     7
421
 16777215
 74
     2
 91
        2
 64
     7
 65
   257
 75
     1
175
     1
 42
40.0
 92
        8
 66
     7
 43
1.0
 76
     1
 77
     6
 78
     2
 67
     7
 79
     3
170
     0
171
     0
290
     0
174
     0
 93
        1
 44
0.0
173
     0
291
     0
 45
0.0
1001
ACAD
1000
AcDbSavedByObjectVersion
1070
     0
  0
VISUALSTYLE
  5
DD7
102
{ACAD_REACTORS
330
DCC
102
}
330
DCC
100
AcDbVisualStyle
  2
Dim
 70
    11
 71
     2
 72
     2
 73
     0
 90
        0
 40
-0.6
 41
-30.0
 62
     5
 63
     7
421
 16777215
 74
     1
 91
        4
 64
     7
 65
   257
 75
     1
175
     1
 42
1.0
 92
        8
 66
     7
 43
1.0
 76
     1
 77
     6
 78
     2
 67
     7
 79
     5
170
     0
171
     0
290
     0
174
     0
 93
        1
 44
-50.0
173
     0
291
     1
 45
0.0
1001
ACAD
1000
AcDbSavedByObjectVersion
1070
     0
  0
VISUALSTYLE
  5
DDB
102
{ACAD_REACTORS
330
DCC
102
}
330
DCC
100
AcDbVisualStyle
  2
Facepattern
 70
    15
 71
     2
 72
     2
 73
     0
 90
        0
 40
-0.6
 41
-30.0
 62
     5
 63
     7
421
 16777215
 74
     1
 91
        4
 64
     7
 65
   257
 75
     1
175
     1
 42
1.0
 92
        8
 66
     7
 43
1.0
 76
     1
 77
     6
 78
     2
 67
     7
 79
     5
170
     0
171
     0
290
     0
174
     0
 93
        1
 44
0.0
173
     0
291
     1
 45
0.0
1001
ACAD
1000
AcDbSavedByObjectVersion
1070
     0
  0
VISUALSTYLE
  5
DCD
102
{ACAD_REACTORS
330
DCC
102
}
330
DCC
100
AcDbVisualStyle
  2
Flat
 70
     0
 71
     2
 72
     1
 73
     1
 90
        2
 40
-0.6
 41
30.0
 62
     5
 63
     7
421
 16777215
 74
     0
 91
        4
 64
     7
 65
   257
 75
     1
175
     1
 42
1.0
 92
        8
 66
     7
 43
1.0
 76
     1
 77
     6
 78
     2
 67
     7
 79
     5
170
     0
171
     0
290
     0
174
     0
 93
       13
 44
0.0
173
     0
291
     1
 45
0.0
1001
ACAD
1000
AcDbSavedByObjectVersion
1070
     0
  0
VISUALSTYLE
  5
DCE
102
{ACAD_REACTORS
330
DCC
102
}
330
DCC
100
AcDbVisualStyle
  2
FlatWithEdges
 70
     1
 71
     2
 72
     1
 73
     1
 90
        2
 40
-0.6
 41
30.0
 62
     5
 63
     7
421
 16777215
 74
     1
 91
        4
 64
     7
 65
   257
 75
     1
175
     1
 42
1.0
 92
        0
 66
   257
 43
1.0
 76
     1
 77
     6
 78
     2
 67
     7
 79
     5
170
     0
171
     0
290
     0
174
     0
 93
       13
 44
0.0
173
     0
291
     1
 45
0.0
1001
ACAD
1000
AcDbSavedByObjectVersion
1070
     0
  0
VISUALSTYLE
  5
DCF
102
{ACAD_REACTORS
330
DCC
102
}
330
DCC
100
AcDbVisualStyle
  2
Gouraud
 70
     2
 71
     2
 72
     2
 73
     1
 90
        2
 40
-0.6
 41
30.0
 62
     5
 63
     7
421
 16777215
 74
     0
 91
        4
 64
     7
 65
   257
 75
     1
175
     1
 42
1.0
 92
        0
 66
     7
 43
1.0
 76
     1
 77
     6
 78
     2
 67
     7
 79
     5
170
     0
171
     0
290
     0
174
     0
 93
       13
 44
0.0
173
     0
291
     1
 45
0.0
1001
ACAD
1000
AcDbSavedByObjectVersion
1070
     0
  0
VISUALSTYLE
  5
DD0
102
{ACAD_REACTORS
330
DCC
102
}
330
DCC
100
AcDbVisualStyle
  2
GouraudWithEdges
 70
     3
 71
     2
 72
     2
 73
     1
 90
        2
 40
-0.6
 41
30.0
 62
     5
 63
     7
421
 16777215
 74
     1
 91
        4
 64
     7
 65
   257
 75
     1
175
     1
 42
1.0
 92
        0
 66
   257
 43
1.0
 76
     1
 77
     6
 78
     2
 67
     7
 79
     5
170
     0
171
     0
290
     0
174
     0
 93
       13
 44
0.0
173
     0
291
     1
 45
0.0
1001
ACAD
1000
AcDbSavedByObjectVersion
1070
     0
  0
VISUALSTYLE
  5
DDA
102
{ACAD_REACTORS
330
DCC
102
}
330
DCC
100
AcDbVisualStyle
  2
Linepattern
 70
    14
 71
     2
 72
     2
 73
     0
 90
        0
 40
-0.6
 41
-30.0
 62
     5
 63
     7
421
 16777215
 74
     1
 91
        4
 64
     7
 65
   257
 75
     7
175
     7
 42
1.0
 92
        8
 66
     7
 43
1.0
 76
     1
 77
     6
 78
     2
 67
     7
 79
     5
170
     0
171
     0
290
     0
174
     0
 93
        1
 44
0.0
173
     0
291
     1
 45
0.0
1001
ACAD
1000
AcDbSavedByObjectVersion
1070
     0
  0
VISUALSTYLE
  5
DD6
102
{ACAD_REACTORS
330
DCC
102
}
330
DCC
100
AcDbVisualStyle
  2
Realistic
 70
     8
 71
     2
 72
     2
 73
     0
 90
        0
 40
-0.6
 41
-30.0
 62
     5
 63
     7
421
 16777215
 74
     1
 91
        0
 64
     7
 65
   257
 75
     1
175
     1
 42
1.0
 92
        8
 66
     8
424
  7895160
 43
1.0
 76
     1
 77
     6
 78
     2
 67
     7
 79
     5
170
     0
171
     0
290
     0
174
     0
 93
       13
 44
0.0
173
     0
291
     0
 45
0.0
1001
ACAD
1000
AcDbSavedByObjectVersion
1070
     0
  0
VISUALSTYLE
  5
DD9
102
{ACAD_REACTORS
330
DCC
102
}
330
DCC
100
AcDbVisualStyle
  2
Thicken
 70
    13
 71
     2
 72
     2
 73
     0
 90
        0
 40
-0.6
 41
-30.0
 62
     5
 63
     7
421
 16777215
 74
     1
 91
        4
 64
     7
 65
   257
 75
     1
175
     1
 42
1.0
 92
       12
 66
     7
 43
1.0
 76
     1
 77
     6
 78
     2
 67
     7
 79
     5
170
     0
171
     0
290
     0
174
     0
 93
        1
 44
0.0
173
     0
291
     1
 45
0.0
1001
ACAD
1000
AcDbSavedByObjectVersion
1070
     0
  0
DICTIONARYVAR
  5
E19
102
{ACAD_REACTORS
330
2C
102
}
330
2C
100
DictionaryVariables
280
     0
  1
1:1
  0
DICTIONARYVAR
  5
E18
102
{ACAD_REACTORS
330
2C
102
}
330
2C
100
DictionaryVariables
280
     0
  1
STANDARD
  0
DICTIONARYVAR
  5
E17
102
{ACAD_REACTORS
330
2C
102
}
330
2C
100
DictionaryVariables
280
     0
  1
STANDARD
  0
DICTIONARYVAR
  5
2D
102
{ACAD_REACTORS
330
2C
102
}
330
2C
100
DictionaryVariables
280
     0
  1
0
  0
DICTIONARYVAR
  5
DB1
102
{ACAD_REACTORS
330
2C
102
}
330
2C
100
DictionaryVariables
280
     0
  1
0
  0
DICTIONARYVAR
  5
18C
102
{ACAD_REACTORS
330
2C
102
}
330
2C
100
DictionaryVariables
280
     0
  1
96
  0
DICTIONARY
  5
DBD
330
DBC
100
AcDbDictionary
280
     1
281
     1
  3
ACAD_XREC_ROUNDTRIP
360
E1E
  3
BUMPTILE
360
DBF
  3
DIFFUSETILE
360
DBE
  3
OPACITYTILE
360
DC2
  3
REFLECTIONTILE
360
DC1
  3
REFRACTIONTILE
360
DC3
  3
SPECULARTILE
360
DC0
  0
DICTIONARY
  5
DB5
330
DB4
100
AcDbDictionary
280
     1
281
     1
  3
ACAD_XREC_ROUNDTRIP
360
E1D
  3
BUMPTILE
360
DB7
  3
DIFFUSETILE
360
DB6
  3
OPACITYTILE
360
DBA
  3
REFLECTIONTILE
360
DB9
  3
REFRACTIONTILE
360
DBB
  3
SPECULARTILE
360
DB8
  0
DICTIONARY
  5
DC5
330
DC4
100
AcDbDictionary
280
     1
281
     1
  3
ACAD_XREC_ROUNDTRIP
360
E1F
  3
BUMPTILE
360
DC7
  3
DIFFUSETILE
360
DC6
  3
OPACITYTILE
360
DCA
  3
REFLECTIONTILE
360
DC9
  3
REFRACTIONTILE
360
DCB
  3
SPECULARTILE
360
DC8
  0
DICTIONARY
  5
E1A
330
DDF
100
AcDbDictionary
280
     1
281
     1
  3
ACAD_ROUNDTRIP_2008_TABLESTYLE_CELLSTYLEMAP
360
E1B
  3
ACAD_XREC_ROUNDTRIP
360
E20
  0
XRECORD
  5
E1E
102
{ACAD_REACTORS
330
DBD
102
}
330
DBD
100
AcDbXrecord
280
     1
102
MATERIAL
148
0.0
149
0.0
149
0.0
 93
        0
 94
      127
282
     0
 72
     0
 77
     0
171
     0
175
     0
179
     0
273
     0
  0
XRECORD
  5
DBF
102
{ACAD_REACTORS
330
DBD
102
}
330
DBD
100
AcDbXrecord
280
     1
270
     1
271
     1
  0
XRECORD
  5
DBE
102
{ACAD_REACTORS
330
DBD
102
}
330
DBD
100
AcDbXrecord
280
     1
270
     1
271
     1
  0
XRECORD
  5
DC2
102
{ACAD_REACTORS
330
DBD
102
}
330
DBD
100
AcDbXrecord
280
     1
270
     1
271
     1
  0
XRECORD
  5
DC1
102
{ACAD_REACTORS
330
DBD
102
}
330
DBD
100
AcDbXrecord
280
     1
270
     1
271
     1
  0
XRECORD
  5
DC3
102
{ACAD_REACTORS
330
DBD
102
}
330
DBD
100
AcDbXrecord
280
     1
270
     1
271
     1
  0
XRECORD
  5
DC0
102
{ACAD_REACTORS
330
DBD
102
}
330
DBD
100
AcDbXrecord
280
     1
270
     1
271
     1
  0
XRECORD
  5
E1D
102
{ACAD_REACTORS
330
DB5
102
}
330
DB5
100
AcDbXrecord
280
     1
102
MATERIAL
148
0.0
149
0.0
149
0.0
 93
        0
 94
      127
282
     0
 72
     0
 77
     0
171
     0
175
     0
179
     0
273
     0
  0
XRECORD
  5
DB7
102
{ACAD_REACTORS
330
DB5
102
}
330
DB5
100
AcDbXrecord
280
     1
270
     1
271
     1
  0
XRECORD
  5
DB6
102
{ACAD_REACTORS
330
DB5
102
}
330
DB5
100
AcDbXrecord
280
     1
270
     1
271
     1
  0
XRECORD
  5
DBA
102
{ACAD_REACTORS
330
DB5
102
}
330
DB5
100
AcDbXrecord
280
     1
270
     1
271
     1
  0
XRECORD
  5
DB9
102
{ACAD_REACTORS
330
DB5
102
}
330
DB5
100
AcDbXrecord
280
     1
270
     1
271
     1
  0
XRECORD
  5
DBB
102
{ACAD_REACTORS
330
DB5
102
}
330
DB5
100
AcDbXrecord
280
     1
270
     1
271
     1
  0
XRECORD
  5
DB8
102
{ACAD_REACTORS
330
DB5
102
}
330
DB5
100
AcDbXrecord
280
     1
270
     1
271
     1
  0
XRECORD
  5
E1F
102
{ACAD_REACTORS
330
DC5
102
}
330
DC5
100
AcDbXrecord
280
     1
102
MATERIAL
148
0.0
149
0.0
149
0.0
 93
        0
 94
      127
282
     0
 72
     0
 77
     0
171
     0
175
     0
179
     0
273
     0
  0
XRECORD
  5
DC7
102
{ACAD_REACTORS
330
DC5
102
}
330
DC5
100
AcDbXrecord
280
     1
270
     1
271
     1
  0
XRECORD
  5
DC6
102
{ACAD_REACTORS
330
DC5
102
}
330
DC5
100
AcDbXrecord
280
     1
270
     1
271
     1
  0
XRECORD
  5
DCA
102
{ACAD_REACTORS
330
DC5
102
}
330
DC5
100
AcDbXrecord
280
     1
270
     1
271
     1
  0
XRECORD
  5
DC9
102
{ACAD_REACTORS
330
DC5
102
}
330
DC5
100
AcDbXrecord
280
     1
270
     1
271
     1
  0
XRECORD
  5
DCB
102
{ACAD_REACTORS
330
DC5
102
}
330
DC5
100
AcDbXrecord
280
     1
270
     1
271
     1
  0
XRECORD
  5
DC8
102
{ACAD_REACTORS
330
DC5
102
}
330
DC5
100
AcDbXrecord
280
     1
270
     1
271
     1
  0
CELLSTYLEMAP
  5
E1B
102
{ACAD_REACTORS
330
E1A
102
}
330
E1A
100
AcDbCellStyleMap
 90
        3
300
CELLSTYLE
  1
TABLEFORMAT_BEGIN
 90
        5
170
     1
 91
        0
 92
    32768
 62
   257
 93
        1
300
CONTENTFORMAT
  1
CONTENTFORMAT_BEGIN
 90
        0
 91
        0
 92
      512
 93
        0
300

 40
0.0
140
1.0
 94
        5
 62
     0
340
F
144
0.25
309
CONTENTFORMAT_END
171
     0
 94
        0
309
TABLEFORMAT_END
  1
CELLSTYLE_BEGIN
 90
        1
 91
        1
300
_TITLE
309
CELLSTYLE_END
300
CELLSTYLE
  1
TABLEFORMAT_BEGIN
 90
        5
170
     1
 91
        0
 92
        0
 62
   257
 93
        1
300
CONTENTFORMAT
  1
CONTENTFORMAT_BEGIN
 90
        0
 91
        0
 92
      512
 93
        0
300

 40
0.0
140
1.0
 94
        5
 62
     0
340
F
144
0.18
309
CONTENTFORMAT_END
171
     0
 94
        0
309
TABLEFORMAT_END
  1
CELLSTYLE_BEGIN
 90
        2
 91
        1
300
_HEADER
309
CELLSTYLE_END
300
CELLSTYLE
  1
TABLEFORMAT_BEGIN
 90
        5
170
     1
 91
        0
 92
        0
 62
   257
 93
        1
300
CONTENTFORMAT
  1
CONTENTFORMAT_BEGIN
 90
        0
 91
        0
 92
      512
 93
        0
300

 40
0.0
140
1.0
 94
        2
 62
     0
340
F
144
0.18
309
CONTENTFORMAT_END
171
     0
 94
        0
309
TABLEFORMAT_END
  1
CELLSTYLE_BEGIN
 90
        3
 91
        2
300
_DATA
309
CELLSTYLE_END
  0
XRECORD
  5
E20
102
{ACAD_REACTORS
330
E1A
102
}
330
E1A
100
AcDbXrecord
280
     1
102
ACAD_ROUNDTRIP_PRE2007_TABLESTYLE
 90
      512
 91
        0
  1

 92
      512
 93
        0
  2

 94
      512
 95
        0
  3

  0
ENDSEC
  0
EOF
