  0
SECTION
  2
HEADER
  9
$ACADVER
  1
AC1018
  9
$ACADMAINTVER
 70
   104
  9
$DWGCODEPAGE
  3
ANSI_1252
  9
$LASTSAVEDBY
  1
aereyes
  9
$INSBASE
 10
0.0
 20
0.0
 30
0.0
  9
$EXTMIN
 10
0.25
 20
0.2483302711109045
 30
0.0
  9
$EXTMAX
 10
10.71
 20
8.210016413185645
 30
0.0
  9
$LIMMIN
 10
0.0
 20
0.0
  9
$LIMMAX
 10
11.0
 20
8.5
  9
$ORTHOMODE
 70
     0
  9
$REGENMODE
 70
     1
  9
$FILLMODE
 70
     1
  9
$QTEXTMODE
 70
     0
  9
$MIRRTEXT
 70
     1
  9
$LTSCALE
 40
0.25
  9
$ATTMODE
 70
     1
  9
$TEXTSIZE
 40
0.12
  9
$TRACEWID
 40
0.05
  9
$TEXTSTYLE
  7
STANDARD
  9
$CLAYER
  8
OBJECT
  9
$CELTYPE
  6
BYLAYER
  9
$CECOLOR
 62
   256
  9
$CELTSCALE
 40
1.0
  9
$DISPSILH
 70
     0
  9
$DIMSCALE
 40
0.0
  9
$DIMASZ
 40
0.18
  9
$DIMEXO
 40
0.0625
  9
$DIMDLI
 40
0.38
  9
$DIMRND
 40
0.0
  9
$DIMDLE
 40
0.0
  9
$DIMEXE
 40
0.18
  9
$DIMTP
 40
0.0
  9
$DIMTM
 40
0.0
  9
$DIMTXT
 40
0.125
  9
$DIMCEN
 40
0.09
  9
$DIMTSZ
 40
0.0
  9
$DIMTOL
 70
     0
  9
$DIMLIM
 70
     0
  9
$DIMTIH
 70
     1
  9
$DIMTOH
 70
     1
  9
$DIMSE1
 70
     0
  9
$DIMSE2
 70
     0
  9
$DIMTAD
 70
     0
  9
$DIMZIN
 70
     0
  9
$DIMBLK
  1

  9
$DIMASO
 70
     0
  9
$DIMSHO
 70
     1
  9
$DIMPOST
  1

  9
$DIMAPOST
  1

  9
$DIMALT
 70
     0
  9
$DIMALTD
 70
     2
  9
$DIMALTF
 40
25.4
  9
$DIMLFAC
 40
1.0
  9
$DIMTOFL
 70
     0
  9
$DIMTVP
 40
0.0
  9
$DIMTIX
 70
     0
  9
$DIMSOXD
 70
     0
  9
$DIMSAH
 70
     0
  9
$DIMBLK1
  1

  9
$DIMBLK2
  1

  9
$DIMSTYLE
  2
STANDARD
  9
$DIMCLRD
 70
     1
  9
$DIMCLRE
 70
     1
  9
$DIMCLRT
 70
     7
  9
$DIMTFAC
 40
1.0
  9
$DIMGAP
 40
0.09
  9
$DIMJUST
 70
     0
  9
$DIMSD1
 70
     0
  9
$DIMSD2
 70
     0
  9
$DIMTOLJ
 70
     1
  9
$DIMTZIN
 70
     0
  9
$DIMALTZ
 70
     0
  9
$DIMALTTZ
 70
     0
  9
$DIMUPT
 70
     0
  9
$DIMDEC
 70
     4
  9
$DIMTDEC
 70
     4
  9
$DIMALTU
 70
     2
  9
$DIMALTTD
 70
     2
  9
$DIMTXSTY
  7
STANDARD
  9
$DIMAUNIT
 70
     0
  9
$DIMADEC
 70
     0
  9
$DIMALTRND
 40
0.0
  9
$DIMAZIN
 70
     0
  9
$DIMDSEP
 70
    46
  9
$DIMATFIT
 70
     3
  9
$DIMFRAC
 70
     0
  9
$DIMLDRBLK
  1

  9
$DIMLUNIT
 70
     2
  9
$DIMLWD
 70
    -2
  9
$DIMLWE
 70
    -2
  9
$DIMTMOVE
 70
     0
  9
$LUNITS
 70
     2
  9
$LUPREC
 70
     4
  9
$SKETCHINC
 40
0.1
  9
$FILLETRAD
 40
0.0
  9
$AUNITS
 70
     0
  9
$AUPREC
 70
     0
  9
$MENU
  1
acad
  9
$ELEVATION
 40
0.0
  9
$PELEVATION
 40
0.0
  9
$THICKNESS
 40
0.0
  9
$LIMCHECK
 70
     0
  9
$CHAMFERA
 40
0.0
  9
$CHAMFERB
 40
0.0
  9
$CHAMFERC
 40
0.0
  9
$CHAMFERD
 40
0.0
  9
$SKPOLY
 70
     0
  9
$TDCREATE
 40
2450156.494675000
  9
$TDUCREATE
 40
2450156.703008333
  9
$TDUPDATE
 40
2454821.736062002
  9
$TDUUPDATE
 40
2454821.944395336
  9
$TDINDWG
 40
0.3622227315
  9
$TDUSRTIMER
 40
0.3622227315
  9
$USRTIMER
 70
     1
  9
$ANGBASE
 50
0.0
  9
$ANGDIR
 70
     0
  9
$PDMODE
 70
     0
  9
$PDSIZE
 40
0.0
  9
$PLINEWID
 40
0.0
  9
$SPLFRAME
 70
     0
  9
$SPLINETYPE
 70
     6
  9
$SPLINESEGS
 70
     8
  9
$HANDSEED
  5
EF1
  9
$SURFTAB1
 70
     6
  9
$SURFTAB2
 70
     6
  9
$SURFTYPE
 70
     6
  9
$SURFU
 70
     6
  9
$SURFV
 70
     6
  9
$UCSBASE
  2

  9
$UCSNAME
  2

  9
$UCSORG
 10
0.0
 20
0.0
 30
0.0
  9
$UCSXDIR
 10
1.0
 20
0.0
 30
0.0
  9
$UCSYDIR
 10
0.0
 20
1.0
 30
0.0
  9
$UCSORTHOREF
  2

  9
$UCSORTHOVIEW
 70
     0
  9
$UCSORGTOP
 10
0.0
 20
0.0
 30
0.0
  9
$UCSORGBOTTOM
 10
0.0
 20
0.0
 30
0.0
  9
$UCSORGLEFT
 10
0.0
 20
0.0
 30
0.0
  9
$UCSORGRIGHT
 10
0.0
 20
0.0
 30
0.0
  9
$UCSORGFRONT
 10
0.0
 20
0.0
 30
0.0
  9
$UCSORGBACK
 10
0.0
 20
0.0
 30
0.0
  9
$PUCSBASE
  2

  9
$PUCSNAME
  2

  9
$PUCSORG
 10
0.0
 20
0.0
 30
0.0
  9
$PUCSXDIR
 10
1.0
 20
0.0
 30
0.0
  9
$PUCSYDIR
 10
0.0
 20
1.0
 30
0.0
  9
$PUCSORTHOREF
  2

  9
$PUCSORTHOVIEW
 70
     0
  9
$PUCSORGTOP
 10
0.0
 20
0.0
 30
0.0
  9
$PUCSORGBOTTOM
 10
0.0
 20
0.0
 30
0.0
  9
$PUCSORGLEFT
 10
0.0
 20
0.0
 30
0.0
  9
$PUCSORGRIGHT
 10
0.0
 20
0.0
 30
0.0
  9
$PUCSORGFRONT
 10
0.0
 20
0.0
 30
0.0
  9
$PUCSORGBACK
 10
0.0
 20
0.0
 30
0.0
  9
$USERI1
 70
     0
  9
$USERI2
 70
     0
  9
$USERI3
 70
     0
  9
$USERI4
 70
     0
  9
$USERI5
 70
     0
  9
$USERR1
 40
0.0
  9
$USERR2
 40
0.0
  9
$USERR3
 40
0.0
  9
$USERR4
 40
0.0
  9
$USERR5
 40
0.0
  9
$WORLDVIEW
 70
     1
  9
$SHADEDGE
 70
     3
  9
$SHADEDIF
 70
    70
  9
$TILEMODE
 70
     1
  9
$MAXACTVP
 70
    16
  9
$PINSBASE
 10
0.0
 20
0.0
 30
0.0
  9
$PLIMCHECK
 70
     0
  9
$PEXTMIN
 10
1.000000000000000E+20
 20
1.000000000000000E+20
 30
1.000000000000000E+20
  9
$PEXTMAX
 10
-1.000000000000000E+20
 20
-1.000000000000000E+20
 30
-1.000000000000000E+20
  9
$PLIMMIN
 10
0.0
 20
0.0
  9
$PLIMMAX
 10
12.0
 20
9.0
  9
$UNITMODE
 70
     0
  9
$VISRETAIN
 70
     0
  9
$PLINEGEN
 70
     0
  9
$PSLTSCALE
 70
     0
  9
$TREEDEPTH
 70
  3020
  9
$CMLSTYLE
  2
STANDARD
  9
$CMLJUST
 70
     0
  9
$CMLSCALE
 40
1.0
  9
$PROXYGRAPHICS
 70
     1
  9
$MEASUREMENT
 70
     0
  9
$CELWEIGHT
370
    -1
  9
$ENDCAPS
280
     0
  9
$JOINSTYLE
280
     0
  9
$LWDISPLAY
290
     0
  9
$INSUNITS
 70
     0
  9
$HYPERLINKBASE
  1

  9
$STYLESHEET
  1
standard.ctb
  9
$XEDIT
290
     1
  9
$CEPSNTYPE
380
     0
  9
$PSTYLEMODE
290
     1
  9
$FINGERPRINTGUID
  2
{1258FD61-E60A-4FE4-BD64-648AF91D1C02}
  9
$VERSIONGUID
  2
{3BDB7CD5-DB57-4891-853C-0FB8BB3A06D8}
  9
$EXTNAMES
290
     1
  9
$PSVPSCALE
 40
0.0
  9
$OLESTARTUP
290
     0
  9
$SORTENTS
280
    96
  9
$INDEXCTL
280
     0
  9
$HIDETEXT
280
     0
  9
$XCLIPFRAME
290
     0
  9
$HALOGAP
280
     0
  9
$OBSCOLOR
 70
   257
  9
$OBSLTYPE
280
     0
  9
$INTERSECTIONDISPLAY
280
     0
  9
$INTERSECTIONCOLOR
 70
   257
  9
$DIMASSOC
280
     0
  9
$PROJECTNAME
  1

  0
ENDSEC
  0
SECTION
  2
CLASSES
  0
CLASS
  1
DICTIONARYVAR
  2
AcDbDictionaryVar
  3
ObjectDBX Classes
 90
        0
 91
       11
280
     0
281
     0
  0
CLASS
  1
ACDBDICTIONARYWDFLT
  2
AcDbDictionaryWithDefault
  3
ObjectDBX Classes
 90
        0
 91
        1
280
     0
281
     0
  0
CLASS
  1
MATERIAL
  2
AcDbMaterial
  3
ObjectDBX Classes
 90
     1153
 91
        3
280
     0
281
     0
  0
CLASS
  1
VISUALSTYLE
  2
AcDbVisualStyle
  3
ObjectDBX Classes
 90
     4095
 91
       16
280
     0
281
     0
  0
CLASS
  1
TABLESTYLE
  2
AcDbTableStyle
  3
ObjectDBX Classes
 90
     4095
 91
        1
280
     0
281
     0
  0
CLASS
  1
SCALE
  2
AcDbScale
  3
ObjectDBX Classes
 90
     1153
 91
       33
280
     0
281
     0
  0
CLASS
  1
MLEADERSTYLE
  2
AcDbMLeaderStyle
  3
ACDB_MLEADERSTYLE_CLASS
 90
     4095
 91
        1
280
     0
281
     0
  0
CLASS
  1
CELLSTYLEMAP
  2
AcDbCellStyleMap
  3
ObjectDBX Classes
 90
     1152
 91
        2
280
     0
281
     0
  0
ENDSEC
  0
SECTION
  2
TABLES
  0
TABLE
  2
VPORT
  5
8
330
0
100
AcDbSymbolTable
 70
     1
  0
VPORT
  5
E76
330
8
100
AcDbSymbolTableRecord
100
AcDbViewportTableRecord
  2
*Active
 70
     0
 10
0.0
 20
0.0
 11
1.0
 21
1.0
 12
10.52642713153422
 22
4.25
 13
0.0
 23
0.0
 14
0.062
 24
0.062
 15
0.25
 25
0.25
 16
0.0
 26
0.0
 36
1.0
 17
0.0
 27
0.0
 37
0.0
 40
12.61505565370526
 41
1.680522565320664
 42
50.0
 43
0.0
 44
0.0
 50
0.0
 51
0.0
 71
     0
 72
   500
 73
     1
 74
     0
 75
     0
 76
     0
 77
     0
 78
     0
281
     0
 65
     1
110
0.0
120
0.0
130
0.0
111
1.0
121
0.0
131
0.0
112
0.0
122
1.0
132
0.0
 79
     0
146
0.0
  0
ENDTAB
  0
TABLE
  2
LTYPE
  5
5
330
0
100
AcDbSymbolTable
 70
     3
  0
LTYPE
  5
11
330
5
100
AcDbSymbolTableRecord
100
AcDbLinetypeTableRecord
  2
BYBLOCK
 70
     0
  3

 72
    65
 73
     0
 40
0.0
  0
LTYPE
  5
12
330
5
100
AcDbSymbolTableRecord
100
AcDbLinetypeTableRecord
  2
BYLAYER
 70
     0
  3

 72
    65
 73
     0
 40
0.0
  0
LTYPE
  5
13
330
5
100
AcDbSymbolTableRecord
100
AcDbLinetypeTableRecord
  2
CONTINUOUS
 70
     0
  3
Solid line
 72
    65
 73
     0
 40
0.0
  0
LTYPE
  5
1D
330
5
100
AcDbSymbolTableRecord
100
AcDbLinetypeTableRecord
  2
CENTER
 70
     0
  3
____ _ ____ _ ____ _ ____ _ ____ _ ____ _ ____ 
 72
    65
 73
     4
 40
2.0
 49
1.25
 74
     0
 49
-0.25
 74
     0
 49
0.25
 74
     0
 49
-0.25
 74
     0
  0
LTYPE
  5
1E
330
5
100
AcDbSymbolTableRecord
100
AcDbLinetypeTableRecord
  2
HIDDEN
 70
     0
  3
__ __ __ __ __ __ __ __ __ __ __ __ __ __ __ __
 72
    65
 73
     2
 40
0.375
 49
0.25
 74
     0
 49
-0.125
 74
     0
  0
ENDTAB
  0
TABLE
  2
LAYER
  5
2
330
0
100
AcDbSymbolTable
 70
     9
  0
LAYER
  5
E
102
{ACAD_XDICTIONARY
360
ECD
102
}
330
2
100
AcDbSymbolTableRecord
100
AcDbLayerTableRecord
  2
0
 70
     0
 62
     7
  6
CONTINUOUS
370
    -3
390
E4F
  0
LAYER
  5
21
102
{ACAD_XDICTIONARY
360
ECF
102
}
330
2
100
AcDbSymbolTableRecord
100
AcDbLayerTableRecord
  2
FORM
 70
     0
 62
     7
  6
CONTINUOUS
370
    -3
390
E4F
  0
LAYER
  5
22
102
{ACAD_XDICTIONARY
360
ED1
102
}
330
2
100
AcDbSymbolTableRecord
100
AcDbLayerTableRecord
  2
CENTER
 70
     0
 62
     3
  6
CENTER
370
    -3
390
E4F
  0
LAYER
  5
23
102
{ACAD_XDICTIONARY
360
ED3
102
}
330
2
100
AcDbSymbolTableRecord
100
AcDbLayerTableRecord
  2
DIM
 70
     0
 62
     1
  6
CONTINUOUS
370
    -3
390
E4F
  0
LAYER
  5
24
102
{ACAD_XDICTIONARY
360
ED5
102
}
330
2
100
AcDbSymbolTableRecord
100
AcDbLayerTableRecord
  2
HATCH
 70
     0
 62
     4
  6
CONTINUOUS
370
    -3
390
E4F
  0
LAYER
  5
25
102
{ACAD_XDICTIONARY
360
ED7
102
}
330
2
100
AcDbSymbolTableRecord
100
AcDbLayerTableRecord
  2
HIDDEN
 70
     0
 62
     5
  6
HIDDEN
370
    -3
390
E4F
  0
LAYER
  5
26
102
{ACAD_XDICTIONARY
360
ED9
102
}
330
2
100
AcDbSymbolTableRecord
100
AcDbLayerTableRecord
  2
OBJECT
 70
     0
 62
     7
  6
CONTINUOUS
370
    -3
390
E4F
  0
LAYER
  5
27
102
{ACAD_XDICTIONARY
360
EDB
102
}
330
2
100
AcDbSymbolTableRecord
100
AcDbLayerTableRecord
  2
TEXT
 70
     0
 62
     7
  6
CONTINUOUS
370
    -3
390
E4F
  0
LAYER
  5
C30
102
{ACAD_XDICTIONARY
360
EDD
102
}
330
2
100
AcDbSymbolTableRecord
100
AcDbLayerTableRecord
  2
NODE
 70
     0
 62
     7
  6
CONTINUOUS
370
    -3
390
E4F
  0
ENDTAB
  0
TABLE
  2
STYLE
  5
3
330
0
100
AcDbSymbolTable
 70
     4
  0
STYLE
  5
F
330
3
100
AcDbSymbolTableRecord
100
AcDbTextStyleTableRecord
  2
STANDARD
 70
     0
 40
0.0
 41
1.0
 50
0.0
 71
     0
 42
0.12
  3
ROMANS.SHX
  4

  0
STYLE
  5
1C
330
3
100
AcDbSymbolTableRecord
100
AcDbTextStyleTableRecord
  2
ROMANS
 70
     0
 40
0.0
 41
1.0
 50
0.0
 71
     0
 42
0.08
  3
romans
  4

  0
STYLE
  5
B79
330
3
100
AcDbSymbolTableRecord
100
AcDbTextStyleTableRecord
  2
HELV
 70
     0
 40
0.0
 41
1.0
 50
0.0
 71
     0
 42
0.15
  3
HELVMED
  4

  0
STYLE
  5
B7A
330
3
100
AcDbSymbolTableRecord
100
AcDbTextStyleTableRecord
  2
HELR
 70
     0
 40
0.0
 41
1.0
 50
0.0
 71
     0
 42
0.2
  3
HELV
  4

  0
ENDTAB
  0
TABLE
  2
VIEW
  5
6
330
0
100
AcDbSymbolTable
 70
     0
  0
ENDTAB
  0
TABLE
  2
UCS
  5
7
330
0
100
AcDbSymbolTable
 70
     0
  0
ENDTAB
  0
TABLE
  2
APPID
  5
9
330
0
100
AcDbSymbolTable
 70
     2
  0
APPID
  5
10
330
9
100
AcDbSymbolTableRecord
100
AcDbRegAppTableRecord
  2
ACAD
 70
     0
  0
APPID
  5
ECA
330
9
100
AcDbSymbolTableRecord
100
AcDbRegAppTableRecord
  2
ACAD_MLEADERVER
 70
     0
  0
ENDTAB
  0
TABLE
  2
DIMSTYLE
  5
A
330
0
100
AcDbSymbolTable
 70
     1
100
AcDbDimStyleTable
 71
     0
  0
DIMSTYLE
105
FA
330
A
100
AcDbSymbolTableRecord
100
AcDbDimStyleTableRecord
  2
STANDARD
 70
     0
340
F
  0
ENDTAB
  0
TABLE
  2
BLOCK_RECORD
  5
1
330
0
100
AcDbSymbolTable
 70
     1
  0
BLOCK_RECORD
  5
17
330
1
100
AcDbSymbolTableRecord
100
AcDbBlockTableRecord
  2
*MODEL_SPACE
340
E52
  0
BLOCK_RECORD
  5
14
330
1
100
AcDbSymbolTableRecord
100
AcDbBlockTableRecord
  2
*PAPER_SPACE
340
E53
  0
BLOCK_RECORD
  5
DC6
330
1
100
AcDbSymbolTableRecord
100
AcDbBlockTableRecord
  2
A$C7208540F
340
0
  0
ENDTAB
  0
ENDSEC
  0
SECTION
  2
BLOCKS
  0
BLOCK
  5
2A
330
17
100
AcDbEntity
  8
0
100
AcDbBlockBegin
  2
*MODEL_SPACE
 70
     0
 10
0.0
 20
0.0
 30
0.0
  3
*MODEL_SPACE
  1

  0
ENDBLK
  5
2B
330
17
100
AcDbEntity
  8
0
100
AcDbBlockEnd
  0
BLOCK
  5
28
330
14
100
AcDbEntity
 67
     1
  8
0
100
AcDbBlockBegin
  2
*PAPER_SPACE
 70
     0
 10
0.0
 20
0.0
 30
0.0
  3
*PAPER_SPACE
  1

  0
ENDBLK
  5
29
330
14
100
AcDbEntity
 67
     1
  8
0
100
AcDbBlockEnd
  0
BLOCK
  5
E00
330
DC6
100
AcDbEntity
  8
0
100
AcDbBlockBegin
  2
A$C7208540F
 70
     0
 10
0.0
 20
0.0
 30
0.0
  3
A$C7208540F
  1

  0
LINE
  5
DC7
330
DC6
100
AcDbEntity
  8
OBJECT
100
AcDbLine
 10
0.8077126937737943
 20
0.143790558347284
 30
0.0
 11
0.8077126937737935
 21
1.924490730207875
 31
0.0
  0
LINE
  5
DC8
330
DC6
100
AcDbEntity
  8
OBJECT
100
AcDbLine
 10
1.157711838584967
 20
1.028886105135443
 30
0.0
 11
1.157711838584966
 21
0.2144742962806214
 31
0.0
  0
LINE
  5
DC9
330
DC6
100
AcDbEntity
  8
OBJECT
100
AcDbLine
 10
1.082711838584967
 20
1.028886105135443
 30
0.0
 11
1.082711838584967
 21
0.020772214497228
 31
0.0
  0
LINE
  5
DCA
330
DC6
100
AcDbEntity
  8
OBJECT
100
AcDbLine
 10
0.8599022024919626
 20
1.028886105135444
 30
0.0
 11
0.8599022024919623
 21
0.1020740390392314
 31
0.0
  0
LINE
  5
DCB
330
DC6
100
AcDbEntity
  8
OBJECT
100
AcDbLine
 10
0.8331650475489134
 20
1.028886105135444
 30
0.0
 11
0.833165047548913
 21
0.1020740390392314
 31
0.0
  0
LINE
  5
DCC
330
DC6
100
AcDbEntity
  8
OBJECT
100
AcDbLine
 10
1.082711838584966
 20
0.1020740390392296
 30
0.0
 11
0.8331650475489137
 21
0.1020740390392305
 31
0.0
  0
LINE
  5
DCD
330
DC6
100
AcDbEntity
  8
OBJECT
100
AcDbLine
 10
1.144491025449319
 20
-0.0000000042263393
 30
0.0
 11
0.8926912762213689
 21
-0.0000000042263393
 31
0.0
  0
LINE
  5
DCE
330
DC6
100
AcDbEntity
  8
OBJECT
100
AcDbLine
 10
0.8926912762213699
 20
0.0429688817649874
 30
0.0
 11
0.8926912762213694
 21
-0.0000000042263384
 31
0.0
  0
LINE
  5
DCF
330
DC6
100
AcDbEntity
  8
OBJECT
100
AcDbLine
 10
0.8926912762213699
 20
0.0429688817649874
 30
0.0
 11
0.7901988373720874
 21
0.0429688817649874
 31
0.0
  0
LINE
  5
DD0
330
DC6
100
AcDbEntity
  8
OBJECT
100
AcDbLine
 10
0.7901988373720874
 20
0.143790558347284
 30
0.0
 11
0.7901988373720874
 21
0.0429688817649874
 31
0.0
  0
LINE
  5
DD1
330
DC6
100
AcDbEntity
  8
OBJECT
100
AcDbLine
 10
0.8077126937737935
 20
0.143790558347284
 30
0.0
 11
0.7901988373720874
 21
0.143790558347284
 31
0.0
  0
LINE
  5
DD2
330
DC6
100
AcDbEntity
  8
OBJECT
100
AcDbLine
 10
1.144491025449319
 20
0.0207722144972289
 30
0.0
 11
1.144491025449319
 21
-0.0000000042263393
 31
0.0
  0
LINE
  5
DD3
330
DC6
100
AcDbEntity
  8
OBJECT
100
AcDbLine
 10
1.152208154966317
 20
0.2144742962806223
 30
0.0
 11
1.152208154966317
 21
0.1002155355878287
 31
0.0
  0
LINE
  5
DD4
330
DC6
100
AcDbEntity
  8
OBJECT
100
AcDbLine
 10
1.157711838584965
 20
0.0207722144972289
 30
0.0
 11
1.082711838584967
 21
0.0207722144972289
 31
0.0
  0
LINE
  5
DD5
330
DC6
100
AcDbEntity
  8
OBJECT
100
AcDbLine
 10
1.157711838584966
 20
0.1002155355878287
 30
0.0
 11
1.152208154966317
 21
0.1002155355878296
 31
0.0
  0
LINE
  5
DD6
330
DC6
100
AcDbEntity
  8
OBJECT
100
AcDbLine
 10
1.157711838584966
 20
0.1002155355878287
 30
0.0
 11
1.157711838584966
 21
0.0207722144972289
 31
0.0
  0
LINE
  5
DD7
330
DC6
100
AcDbEntity
  8
OBJECT
100
AcDbLine
 10
1.157711838584966
 20
0.2144742962806214
 30
0.0
 11
1.152208154966317
 21
0.2144742962806214
 31
0.0
  0
MTEXT
  5
DD8
330
DC6
100
AcDbEntity
  8
DIM
 62
     7
100
AcDbMText
 10
0.2008928668694292
 20
1.596605191039025
 30
0.0
 40
0.09375
 41
0.0
 71
     5
 72
     1
  1
(.031)
 73
     1
 44
1.0
  0
MTEXT
  5
DD9
330
DC6
100
AcDbEntity
  8
DIM
 62
     7
100
AcDbMText
 10
0.1807455837673704
 20
1.782156122121646
 30
0.0
 40
0.09375
 41
0.0
 71
     5
 72
     1
  1
0.8
 73
     1
 44
1.0
  0
MTEXT
  5
DDA
330
DC6
100
AcDbEntity
  8
DIM
 62
     7
100
AcDbMText
 10
1.655217951521501
 20
2.536933351982797
 30
0.0
 40
0.09375
 41
0.0
 71
     5
 72
     1
  1
(.291)
 73
     1
 44
1.0
  0
LINE
  5
DDB
330
DC6
100
AcDbEntity
  8
OBJECT
100
AcDbLine
 10
0.8331650475489134
 20
1.028886105135442
 30
0.0
 11
0.833165047548913
 21
1.955698171231655
 31
0.0
  0
LINE
  5
DDC
330
DC6
100
AcDbEntity
  8
OBJECT
100
AcDbLine
 10
0.8599022024919626
 20
1.028886105135442
 30
0.0
 11
0.8599022024919623
 21
1.955698171231655
 31
0.0
  0
LINE
  5
DDD
330
DC6
100
AcDbEntity
  8
OBJECT
100
AcDbLine
 10
1.082711838584967
 20
1.028886105135443
 30
0.0
 11
1.082711838584967
 21
2.036999995773658
 31
0.0
  0
LINE
  5
DDE
330
DC6
100
AcDbEntity
  8
OBJECT
100
AcDbLine
 10
1.157711838584967
 20
1.028886105135443
 30
0.0
 11
1.157711838584966
 21
1.843297913990265
 31
0.0
  0
SOLID
  5
DDF
330
DC6
100
AcDbEntity
  8
DIM
 62
     1
100
AcDbTrace
 10
1.028500712940077
 20
2.54468235053326
 30
0.0
 11
1.028500712940077
 21
2.499682350533261
 31
0.0
 12
0.893500712940078
 22
2.522182350533261
 32
0.0
 13
0.893500712940078
 23
2.522182350533261
 33
0.0
  0
LINE
  5
DE0
330
DC6
100
AcDbEntity
  8
OBJECT
100
AcDbLine
 10
1.144491025449319
 20
2.057772214497226
 30
0.0
 11
0.8926912762213689
 21
2.057772214497226
 31
0.0
  0
LINE
  5
DE1
330
DC6
100
AcDbEntity
  8
OBJECT
100
AcDbLine
 10
1.082711838584966
 20
1.955698171231657
 30
0.0
 11
0.8331650475489137
 21
1.955698171231656
 31
0.0
  0
LINE
  5
DE2
330
DC6
100
AcDbEntity
  8
DIM
 62
     1
100
AcDbLine
 10
0.893500712940078
 20
2.104647214497227
 30
0.0
 11
0.893500712940078
 21
2.587879704898583
 31
0.0
  0
MTEXT
  5
DE3
330
DC6
100
AcDbEntity
  8
DIM
 62
     7
100
AcDbMText
 10
0.3719899479000599
 20
2.379116024418384
 30
0.0
 40
0.09375
 41
0.0
 71
     5
 72
     1
  1
(.110)
 73
     1
 44
1.0
  0
LINE
  5
DE4
330
DC6
100
AcDbEntity
  8
DIM
 62
     1
100
AcDbLine
 10
0.7915005326874116
 20
2.104647214497227
 30
0.0
 11
0.7915005326874116
 21
2.857484283065417
 31
0.0
  0
LINE
  5
DE5
330
DC6
100
AcDbEntity
  8
DIM
 62
     1
100
AcDbLine
 10
0.603951811919433
 20
1.745851800810413
 30
0.0
 11
0.3709866006947595
 21
1.745851800810413
 31
0.0
  0
LINE
  5
DE6
330
DC6
100
AcDbEntity
  8
DIM
 62
     1
100
AcDbLine
 10
0.7643684654483978
 20
2.057772214497226
 30
0.0
 11
0.5314032542237244
 21
2.057772214497226
 31
0.0
  0
LINE
  5
DE7
330
DC6
100
AcDbEntity
  8
DIM
 62
     1
100
AcDbLine
 10
0.7643684654483978
 20
2.015851800810413
 30
0.0
 11
0.5314032542237244
 21
2.015851800810413
 31
0.0
  0
LINE
  5
DE8
330
DC6
100
AcDbEntity
  8
OBJECT
100
AcDbLine
 10
0.7901988373720874
 20
1.924490730207875
 30
0.0
 11
0.7901988373720874
 21
2.014803328505899
 31
0.0
  0
SOLID
  5
DE9
330
DC6
100
AcDbEntity
  8
DIM
 62
     1
100
AcDbTrace
 10
0.5814518119194334
 20
1.880851800810413
 30
0.0
 11
0.6264518119194334
 21
1.880851800810413
 31
0.0
 12
0.6039518119194334
 22
2.015851800810413
 32
0.0
 13
0.6039518119194334
 23
2.015851800810413
 33
0.0
  0
LINE
  5
DEA
330
DC6
100
AcDbEntity
  8
DIM
 62
     1
100
AcDbLine
 10
0.603951811919433
 20
1.880851800810413
 30
0.0
 11
0.603951811919433
 21
1.745851800810413
 31
0.0
  0
LINE
  5
DEB
330
DC6
100
AcDbEntity
  8
OBJECT
100
AcDbLine
 10
0.807712693773794
 20
1.924490730207875
 30
0.0
 11
0.7901988373720874
 21
1.924490730207875
 31
0.0
  0
SOLID
  5
DEC
330
DC6
100
AcDbEntity
  8
DIM
 62
     1
100
AcDbTrace
 10
0.5814518119194405
 20
2.192772214497225
 30
0.0
 11
0.6264518119194405
 21
2.192772214497225
 31
0.0
 12
0.6039518119194405
 22
2.057772214497226
 32
0.0
 13
0.6039518119194405
 23
2.057772214497226
 33
0.0
  0
LINE
  5
DED
330
DC6
100
AcDbEntity
  8
DIM
 62
     1
100
AcDbLine
 10
0.6039518119194401
 20
2.192772214497225
 30
0.0
 11
0.6039518119194401
 21
2.284997944239575
 31
0.0
  0
LINE
  5
DEE
330
DC6
100
AcDbEntity
  8
OBJECT
100
AcDbLine
 10
0.8926912762213699
 20
2.014803328505899
 30
0.0
 11
0.7901988373720874
 21
2.014803328505899
 31
0.0
  0
LINE
  5
DEF
330
DC6
100
AcDbEntity
  8
OBJECT
100
AcDbLine
 10
0.8926912762213699
 20
2.014803328505899
 30
0.0
 11
0.8926912762213694
 21
2.057772214497225
 31
0.0
  0
LINE
  5
DF0
330
DC6
100
AcDbEntity
  8
DIM
 62
     1
100
AcDbLine
 10
0.6565005326874114
 20
2.52192477086506
 30
0.0
 11
0.5215005326874116
 21
2.52192477086506
 31
0.0
  0
LINE
  5
DF1
330
DC6
100
AcDbEntity
  8
DIM
 62
     1
100
AcDbLine
 10
0.6565005326874114
 20
2.722484283065417
 30
0.0
 11
0.5215005326874116
 21
2.722484283065417
 31
0.0
  0
MTEXT
  5
DF2
330
DC6
100
AcDbEntity
  8
DIM
 62
     7
100
AcDbMText
 10
0.3518426647980011
 20
2.564666955501005
 30
0.0
 40
0.09375
 41
0.0
 71
     5
 72
     1
  1
2.8
 73
     1
 44
1.0
  0
SOLID
  5
DF3
330
DC6
100
AcDbEntity
  8
DIM
 62
     1
100
AcDbTrace
 10
0.6565005326874114
 20
2.54442477086506
 30
0.0
 11
0.6565005326874114
 21
2.49942477086506
 31
0.0
 12
0.7915005326874116
 22
2.52192477086506
 32
0.0
 13
0.7915005326874116
 23
2.52192477086506
 33
0.0
  0
SOLID
  5
DF4
330
DC6
100
AcDbEntity
  8
DIM
 62
     1
100
AcDbTrace
 10
0.6565005326874114
 20
2.744984283065417
 30
0.0
 11
0.6565005326874114
 21
2.699984283065417
 31
0.0
 12
0.7915005326874116
 22
2.722484283065417
 32
0.0
 13
0.7915005326874116
 23
2.722484283065417
 33
0.0
  0
LINE
  5
DF5
330
DC6
100
AcDbEntity
  8
DIM
 62
     1
100
AcDbLine
 10
1.160017290566219
 20
2.104647214497227
 30
0.0
 11
1.160017290566219
 21
2.857484283065417
 31
0.0
  0
LINE
  5
DF6
330
DC6
100
AcDbEntity
  8
OBJECT
100
AcDbLine
 10
1.157711838584966
 20
1.957556674683058
 30
0.0
 11
1.157711838584966
 21
2.036999995773657
 31
0.0
  0
LINE
  5
DF7
330
DC6
100
AcDbEntity
  8
OBJECT
100
AcDbLine
 10
1.152208154966317
 20
1.843297913990264
 30
0.0
 11
1.152208154966317
 21
1.957556674683058
 31
0.0
  0
LINE
  5
DF8
330
DC6
100
AcDbEntity
  8
OBJECT
100
AcDbLine
 10
1.157711838584966
 20
1.957556674683058
 30
0.0
 11
1.152208154966317
 21
1.957556674683057
 31
0.0
  0
LINE
  5
DF9
330
DC6
100
AcDbEntity
  8
OBJECT
100
AcDbLine
 10
1.157711838584966
 20
1.843297913990265
 30
0.0
 11
1.152208154966317
 21
1.843297913990265
 31
0.0
  0
LINE
  5
DFA
330
DC6
100
AcDbEntity
  8
OBJECT
100
AcDbLine
 10
1.157711838584965
 20
2.036999995773657
 30
0.0
 11
1.082711838584967
 21
2.036999995773657
 31
0.0
  0
LINE
  5
DFB
330
DC6
100
AcDbEntity
  8
OBJECT
100
AcDbLine
 10
1.144491025449319
 20
2.036999995773657
 30
0.0
 11
1.144491025449319
 21
2.057772214497226
 31
0.0
  0
LINE
  5
DFC
330
DC6
100
AcDbEntity
  8
DIM
 62
     1
100
AcDbLine
 10
1.295017290566219
 20
2.722484283065417
 30
0.0
 11
1.43001729056622
 21
2.722484283065417
 31
0.0
  0
LINE
  5
DFD
330
DC6
100
AcDbEntity
  8
DIM
 62
     1
100
AcDbLine
 10
1.028500712940077
 20
2.522182350533261
 30
0.0
 11
1.120726442682426
 21
2.522182350533261
 31
0.0
  0
SOLID
  5
DFE
330
DC6
100
AcDbEntity
  8
DIM
 62
     1
100
AcDbTrace
 10
1.295017290566219
 20
2.744984283065417
 30
0.0
 11
1.295017290566219
 21
2.699984283065417
 31
0.0
 12
1.160017290566219
 22
2.722484283065417
 32
0.0
 13
1.160017290566219
 23
2.722484283065417
 33
0.0
  0
MTEXT
  5
DFF
330
DC6
100
AcDbEntity
  8
DIM
 62
     7
100
AcDbMText
 10
1.635070668419443
 20
2.722484283065417
 30
0.0
 40
0.09375
 41
0.0
 71
     5
 72
     1
  1
7.4
 73
     1
 44
1.0
  0
ENDBLK
  5
E01
330
DC6
100
AcDbEntity
  8
0
100
AcDbBlockEnd
  0
ENDSEC
  0
SECTION
  2
ENTITIES
  0
LINE
  5
BC7
330
17
100
AcDbEntity
  8
FORM
100
AcDbLine
 10
2.695377489052576
 20
1.989130419728978
 30
0.0
 11
0.25
 21
1.989130419728978
 31
0.0
  0
TEXT
  5
BC8
330
17
100
AcDbEntity
  8
FORM
100
AcDbText
 10
0.9766218010942354
 20
1.831598449722397
 30
0.0
 40
0.09
  1
E.O. N.O.
 72
     4
 11
1.289478943951378
 21
1.876598449722397
 31
0.0
100
AcDbText
  0
TEXT
  5
BC9
330
17
100
AcDbEntity
  8
FORM
100
AcDbText
 10
0.2842857125303047
 20
1.831598449722397
 30
0.0
 40
0.09
  1
REV.
 72
     4
 11
0.4299999982445905
 21
1.876598449722397
 31
0.0
100
AcDbText
  0
TEXT
  5
BCA
330
17
100
AcDbEntity
  8
FORM
100
AcDbText
 10
2.727228862851443
 20
1.755392835964501
 30
0.0
 40
0.05
  1
DIMENSIONS ARE IN INCHES
 72
     1
 11
3.262943148565729
 21
1.755392835964501
 31
0.0
100
AcDbText
  0
TEXT
  5
BCB
330
17
100
AcDbEntity
  8
FORM
100
AcDbText
 10
2.727278038080573
 20
1.588726169297835
 30
0.0
 40
0.05
  1
FRACTION      DECIMALS      ANGLES
 72
     1
 11
3.517754228556763
 21
1.588726169297835
 31
0.0
100
AcDbText
  0
TEXT
  5
BCC
330
17
100
AcDbEntity
  8
FORM
100
AcDbText
 10
2.737399617384427
 20
1.672059502631168
 30
0.0
 40
0.05
  1
TOLERANCES ON
 72
     1
 11
3.043351998336809
 21
1.672059502631168
 31
0.0
100
AcDbText
  0
TEXT
  5
BCD
330
17
100
AcDbEntity
  8
FORM
100
AcDbText
 10
2.723850086181901
 20
0.5138388340507319
 30
0.0
 40
0.07
  1
SCALE
100
AcDbText
  0
TEXT
  5
BCE
330
17
100
AcDbEntity
  8
FORM
100
AcDbText
 10
4.458468624149955
 20
1.872959498187011
 30
0.0
 40
0.07
  1
DWN.
100
AcDbText
  0
TEXT
  5
BCF
330
17
100
AcDbEntity
  8
FORM
100
AcDbText
 10
4.458468624149955
 20
1.398258681090509
 30
0.0
 40
0.07
  1
DATE
100
AcDbText
  0
LINE
  5
BD0
330
17
100
AcDbEntity
  8
FORM
100
AcDbLine
 10
2.695377489052576
 20
1.989130419728978
 30
0.0
 11
4.415211632832586
 21
1.989130419728978
 31
0.0
  0
TEXT
  5
BD1
330
17
100
AcDbEntity
  8
FORM
100
AcDbText
 10
2.97231839781857
 20
1.892684021717673
 30
0.0
 40
0.05
  1
UNLESS OTHERWISE SPECIFIED
 72
     4
 11
3.554461254961427
 21
1.917684021717673
 31
0.0
100
AcDbText
  0
TEXT
  5
BD5
330
17
100
AcDbEntity
  8
FORM
100
AcDbText
 10
7.657869070352465
 20
0.4599197610249633
 30
0.0
 40
0.08
  1
NO.
100
AcDbText
  0
TEXT
  5
BD6
330
17
100
AcDbEntity
  8
FORM
100
AcDbText
 10
7.657869070352465
 20
0.5932530943582961
 30
0.0
 40
0.08
  1
DWG.
100
AcDbText
  0
TEXT
  5
BD8
330
17
100
AcDbEntity
  8
FORM
100
AcDbText
 10
2.030714285468466
 20
1.831598449722397
 30
0.0
 40
0.09
  1
DRAFTER
 72
     4
 11
2.31999999975418
 21
1.876598449722397
 31
0.0
100
AcDbText
  0
TEXT
  5
BD9
330
17
100
AcDbEntity
  8
FORM
100
AcDbText
 10
2.723850086181901
 20
0.8923554340507319
 30
0.0
 40
0.07
  1
FINISH
100
AcDbText
  0
TEXT
  5
BDA
330
17
100
AcDbEntity
  8
FORM
100
AcDbText
 10
2.723850086181901
 20
1.270872034050731
 30
0.0
 40
0.07
  1
MATERIAL
100
AcDbText
  0
TEXT
  5
BDD
330
17
100
AcDbEntity
  8
FORM
100
AcDbText
 10
4.46209378020576
 20
0.8379779333667888
 30
0.0
 40
0.06
  1
THIS DRAWING IS PROPERTY OF THE
 72
     1
 11
5.303522351634332
 21
0.8379779333667888
 31
0.0
100
AcDbText
  0
TEXT
  5
BDF
330
17
100
AcDbEntity
  8
FORM
100
AcDbText
 10
4.686379494491474
 20
0.6436922190810746
 30
0.0
 40
0.06
  1
NOT BE COPIED, USED OR
 72
     1
 11
5.303522351634332
 21
0.6436922190810746
 31
0.0
100
AcDbText
  0
TEXT
  5
BE0
330
17
100
AcDbEntity
  8
FORM
100
AcDbText
 10
4.590665208777189
 20
0.5465493619382174
 30
0.0
 40
0.06
  1
DISCLOSED FOR ANY PURPOSE
 72
     1
 11
5.303522351634332
 21
0.5465493619382174
 31
0.0
100
AcDbText
  0
TEXT
  5
BE1
330
17
100
AcDbEntity
  8
FORM
100
AcDbText
 10
4.477808065920046
 20
0.4494065047953601
 30
0.0
 40
0.06
  1
EXCEPT AS AUTHORIZED IN WRITING
 72
     1
 11
5.303522351634332
 21
0.4494065047953601
 31
0.0
100
AcDbText
  0
TEXT
  5
BE3
330
17
100
AcDbEntity
  8
FORM
100
AcDbText
 10
7.661052896581039
 20
0.2814285576370099
 30
0.0
 40
0.08
  1
SIZE  A  SHEET     OF
 11
7.661052896581039
 21
0.3214285576370099
 31
0.0
100
AcDbText
 73
     2
  0
LINE
  5
BE4
330
17
100
AcDbEntity
  8
FORM
100
AcDbLine
 10
4.426533112099226
 20
1.498081847880708
 30
0.0
 11
6.182221322797538
 21
1.498081847880708
 31
0.0
  0
LINE
  5
BE5
330
17
100
AcDbEntity
  8
FORM
100
AcDbLine
 10
0.25
 20
1.007033276032438
 30
0.0
 11
6.182221322797538
 21
1.007033276032439
 31
0.0
  0
LINE
  5
BE6
330
17
100
AcDbEntity
  8
FORM
100
AcDbLine
 10
0.25
 20
1.989130419728978
 30
0.0
 11
10.71
 21
1.989130419728977
 31
0.0
  0
LINE
  5
BE7
330
17
100
AcDbEntity
  8
FORM
100
AcDbLine
 10
10.71
 20
8.209999999999999
 30
0.0
 11
0.25
 21
8.210016413185645
 31
0.0
  0
LINE
  5
BE8
330
17
100
AcDbEntity
  8
FORM
100
AcDbLine
 10
0.25
 20
8.210016413185645
 30
0.0
 11
0.25
 21
0.25
 31
0.0
  0
LINE
  5
BE9
330
17
100
AcDbEntity
  8
FORM
100
AcDbLine
 10
0.25
 20
0.25
 30
0.0
 11
10.71
 21
0.25
 31
0.0
  0
LINE
  5
BEA
330
17
100
AcDbEntity
  8
FORM
100
AcDbLine
 10
10.71
 20
0.25
 30
0.0
 11
10.71
 21
8.209999999999999
 31
0.0
  0
LINE
  5
BEB
330
17
100
AcDbEntity
  8
FORM
100
AcDbLine
 10
0.25
 20
1.385549876032439
 30
0.0
 11
4.428922508542364
 21
1.385549876032438
 31
0.0
  0
LINE
  5
BEC
330
17
100
AcDbEntity
  8
FORM
100
AcDbLine
 10
0.25
 20
1.764066479715818
 30
0.0
 11
2.68000000138049
 21
1.764066479715818
 31
0.0
  0
LINE
  5
BED
330
17
100
AcDbEntity
  8
FORM
100
AcDbLine
 10
0.25
 20
0.4392583760324392
 30
0.0
 11
2.68000000138049
 21
0.4392583760324389
 31
0.0
  0
LINE
  5
BEE
330
17
100
AcDbEntity
  8
FORM
100
AcDbLine
 10
0.25
 20
0.6285166760324392
 30
0.0
 11
4.428922508542364
 21
0.6285166760324388
 31
0.0
  0
LINE
  5
BEF
330
17
100
AcDbEntity
  8
FORM
100
AcDbLine
 10
0.25
 20
0.817774976032439
 30
0.0
 11
2.68000000138049
 21
0.8177749760324388
 31
0.0
  0
LINE
  5
BF0
330
17
100
AcDbEntity
  8
FORM
100
AcDbLine
 10
0.25
 20
1.196291576032439
 30
0.0
 11
2.68000000138049
 21
1.196291576032438
 31
0.0
  0
LINE
  5
BF1
330
17
100
AcDbEntity
  8
FORM
100
AcDbLine
 10
0.25
 20
1.574808176032439
 30
0.0
 11
2.68000000138049
 21
1.574808176032438
 31
0.0
  0
LINE
  5
BF2
330
17
100
AcDbEntity
  8
FORM
100
AcDbLine
 10
1.95999999812787
 20
1.989130419728978
 30
0.0
 11
1.95999999812787
 21
0.2483302711109045
 31
0.0
  0
LINE
  5
BF3
330
17
100
AcDbEntity
  8
FORM
100
AcDbLine
 10
0.609999996489181
 20
1.989130419728978
 30
0.0
 11
0.609999996489181
 21
0.25
 31
0.0
  0
LINE
  5
BF4
330
17
100
AcDbEntity
  8
FORM
100
AcDbLine
 10
2.68000000138049
 20
1.989130419728978
 30
0.0
 11
2.68000000138049
 21
0.2499999999999999
 31
0.0
  0
LINE
  5
BF5
330
17
100
AcDbEntity
  8
FORM
100
AcDbLine
 10
4.428922508542364
 20
1.989130419728978
 30
0.0
 11
4.428922508542364
 21
0.25
 31
0.0
  0
LINE
  5
BF6
330
17
100
AcDbEntity
  8
FORM
100
AcDbLine
 10
2.68000000138049
 20
1.846237623706368
 30
0.0
 11
4.428922508542364
 21
1.846237623706368
 31
0.0
  0
LINE
  5
BF7
330
17
100
AcDbEntity
  8
FORM
100
AcDbLine
 10
4.428922508542364
 20
1.846237623706368
 30
0.0
 11
4.428922508542364
 21
1.846237623706368
 31
0.0
  0
LINE
  5
BF8
330
17
100
AcDbEntity
  8
FORM
100
AcDbLine
 10
6.182221322797538
 20
0.3928571152740196
 30
0.0
 11
10.24124999999999
 21
0.3928571152740196
 31
0.0
  0
LINE
  5
BF9
330
17
100
AcDbEntity
  8
FORM
100
AcDbLine
 10
10.71
 20
0.739130419728978
 30
0.0
 11
6.182221322797538
 21
0.7391304197289781
 31
0.0
  0
LINE
  5
BFA
330
17
100
AcDbEntity
  8
FORM
100
AcDbLine
 10
6.182221322797538
 20
1.989130419728978
 30
0.0
 11
6.182221322797538
 21
0.25
 31
0.0
  0
LINE
  5
BFB
330
17
100
AcDbEntity
  8
FORM
100
AcDbLine
 10
6.812221322797538
 20
0.7391304197289781
 30
0.0
 11
6.812221322797537
 21
0.25
 31
0.0
  0
LINE
  5
BFC
330
17
100
AcDbEntity
  8
FORM
100
AcDbLine
 10
7.532221322797537
 20
0.7391304197289781
 30
0.0
 11
7.532221322797537
 21
0.25
 31
0.0
  0
LINE
  5
BFD
330
17
100
AcDbEntity
  8
FORM
100
AcDbLine
 10
9.21571735032967
 20
1.989130419728978
 30
0.0
 11
9.215717350329672
 21
0.7391304197289781
 31
0.0
  0
TEXT
  5
C06
330
17
100
AcDbEntity
  8
0
100
AcDbText
 10
10.34610119047619
 20
0.6164179222667118
 30
0.0
 40
0.08
  1
REV.
 72
     4
 11
10.475625
 21
0.6564179222667118
 31
0.0
100
AcDbText
  0
LINE
  5
C07
330
17
100
AcDbEntity
  8
0
100
AcDbLine
 10
10.24124999999999
 20
0.739130419728978
 30
0.0
 11
10.24124999999999
 21
0.25
 31
0.0
  0
LINE
  5
C08
330
17
100
AcDbEntity
  8
0
100
AcDbLine
 10
10.24124999999999
 20
0.5737054248044457
 30
0.0
 11
10.71
 21
0.5737054248044457
 31
0.0
  0
TEXT
  5
C09
330
17
100
AcDbEntity
  8
0
100
AcDbText
 10
10.41610119047619
 20
0.3683483051416797
 30
0.0
 40
0.125
  1
2
 72
     4
 11
10.475625
 21
0.4308483051416797
 31
0.0
100
AcDbText
  0
TEXT
  5
C0A
330
17
100
AcDbEntity
  8
0
100
AcDbText
 10
9.333896903985653
 20
0.2780634965791637
 30
0.0
 40
0.08
  1
1
 72
     4
 11
9.366277856366606
 21
0.3180634965791636
 31
0.0
100
AcDbText
  0
TEXT
  5
C0B
330
17
100
AcDbEntity
  8
0
100
AcDbText
 10
8.882304285335443
 20
0.2878708720998364
 30
0.0
 40
0.08
  1
1
 72
     4
 11
8.914685237716396
 21
0.3278708720998363
 31
0.0
100
AcDbText
  0
TEXT
  5
C0C
330
17
100
AcDbEntity
  8
FORM
100
AcDbText
 10
4.854687249223998
 20
1.650708437636254
 30
0.0
 40
0.09
  1
B. FORTIER
100
AcDbText
  0
TEXT
  5
C0F
330
17
100
AcDbEntity
  8
FORM
100
AcDbText
 10
7.020370346903886
 20
1.62316346024945
 30
0.0
 40
0.2
  1
REFLECTOR
100
AcDbText
  0
TEXT
  5
C10
330
17
100
AcDbEntity
  8
FORM
100
AcDbText
 10
8.227784726103505
 20
0.5041937141522688
 30
0.0
 40
0.15
  1
92-115
100
AcDbText
  0
TEXT
  5
C12
330
17
100
AcDbEntity
  8
FORM
100
AcDbText
 10
4.854687249223998
 20
1.221741701840059
 30
0.0
 40
0.09
  1
10/1/00
100
AcDbText
  0
LINE
  5
C16
330
17
100
AcDbEntity
  8
OBJECT
100
AcDbLine
 10
3.495009112239273
 20
1.170760346989332
 30
0.0
 11
4.07495641081266
 21
1.170760346989332
 31
0.0
  0
LINE
  5
C17
330
17
100
AcDbEntity
  8
OBJECT
100
AcDbLine
 10
3.605686068576602
 20
1.095580614314133
 30
0.0
 11
3.694227675439805
 21
1.237095429071487
 31
0.0
  0
LINE
  5
C18
330
17
100
AcDbEntity
  8
OBJECT
100
AcDbLine
 10
3.773915017133347
 20
1.095580614314133
 30
0.0
 11
3.86245662399655
 21
1.237095429071487
 31
0.0
  0
LINE
  5
C19
330
17
100
AcDbEntity
  8
OBJECT
100
AcDbLine
 10
3.495009112239273
 20
0.825818028233769
 30
0.0
 11
4.07495641081266
 21
0.825818028233769
 31
0.0
  0
LINE
  5
C1A
330
17
100
AcDbEntity
  8
OBJECT
100
AcDbLine
 10
3.773915017133347
 20
0.75063829555857
 30
0.0
 11
3.86245662399655
 21
0.8921531103159239
 31
0.0
  0
LINE
  5
C1B
330
17
100
AcDbEntity
  8
OBJECT
100
AcDbLine
 10
3.605686068576602
 20
0.75063829555857
 30
0.0
 11
3.694227675439805
 21
0.8921531103159239
 31
0.0
  0
CIRCLE
  5
C29
330
17
100
AcDbEntity
  8
OBJECT
100
AcDbCircle
 10
6.350876604038873
 20
4.95244282112917
 30
0.0
 40
1.018499999999999
  0
LINE
  5
C96
330
17
100
AcDbEntity
  8
0
100
AcDbLine
 10
3.229835099699852
 20
4.799201251395503
 30
0.0
 11
3.229835099699853
 21
5.10586971671722
 31
0.0
  0
CIRCLE
  5
CB4
330
17
100
AcDbEntity
  8
OBJECT
100
AcDbCircle
 10
6.350876604038873
 20
4.95244282112917
 30
0.0
 40
0.9706769812435043
  0
LINE
  5
D26
330
17
100
AcDbEntity
  8
DIM
 62
     1
100
AcDbLine
 10
5.332376604038873
 20
4.99931782112917
 30
0.0
 11
5.332376604038873
 21
6.770654889697361
 31
0.0
  0
LINE
  5
D27
330
17
100
AcDbEntity
  8
DIM
 62
     1
100
AcDbLine
 10
7.369376604038873
 20
4.99931782112917
 30
0.0
 11
7.369376604038873
 21
6.770654889697361
 31
0.0
  0
LINE
  5
D28
330
17
100
AcDbEntity
  8
DIM
 62
     1
100
AcDbLine
 10
5.467376604038872
 20
6.635654889697361
 30
0.0
 11
6.14051946118173
 21
6.635654889697361
 31
0.0
  0
LINE
  5
D29
330
17
100
AcDbEntity
  8
DIM
 62
     1
100
AcDbLine
 10
7.234376604038874
 20
6.635654889697361
 30
0.0
 11
6.561233746896016
 21
6.635654889697361
 31
0.0
  0
SOLID
  5
D2A
330
17
100
AcDbEntity
  8
DIM
 62
     1
100
AcDbTrace
 10
5.467376604038872
 20
6.658154889697361
 30
0.0
 11
5.467376604038872
 21
6.613154889697361
 31
0.0
 12
5.332376604038873
 22
6.635654889697361
 32
0.0
 13
5.332376604038873
 23
6.635654889697361
 33
0.0
  0
SOLID
  5
D2B
330
17
100
AcDbEntity
  8
DIM
 62
     1
100
AcDbTrace
 10
7.234376604038874
 20
6.658154889697361
 30
0.0
 11
7.234376604038874
 21
6.613154889697361
 31
0.0
 12
7.369376604038873
 22
6.635654889697361
 32
0.0
 13
7.369376604038873
 23
6.635654889697361
 33
0.0
  0
MTEXT
  5
D2C
330
17
100
AcDbEntity
  8
DIM
 62
     7
100
AcDbMText
 10
6.350876604038873
 20
6.635654889697361
 30
0.0
 40
0.09375
 41
0.0
 71
     5
 72
     1
  1
\A1;34.5
 73
     1
 44
1.0
  0
MTEXT
  5
D2D
330
17
100
AcDbEntity
  8
DIM
 62
     7
100
AcDbMText
 10
6.350876604038873
 20
6.45010395861474
 30
0.0
 40
0.09375
 41
0.0
 71
     5
 72
     1
  1
(1.358)
 73
     1
 44
1.0
  0
LINE
  5
D6B
330
17
100
AcDbEntity
  8
OBJECT
100
AcDbLine
 10
3.978097492888788
 20
5.095692821129168
 30
0.0
 11
3.978097492888789
 21
4.80919282112917
 31
0.0
  0
LINE
  5
D76
330
17
100
AcDbEntity
  8
OBJECT
100
AcDbLine
 10
3.229835099699853
 20
5.09569282112917
 30
0.0
 11
3.478148964463852
 21
5.11444282112917
 31
0.0
  0
LINE
  5
D77
330
17
100
AcDbEntity
  8
OBJECT
100
AcDbLine
 10
3.229835099699852
 20
4.80919282112917
 30
0.0
 11
3.478148964463852
 21
4.79044282112917
 31
0.0
  0
LINE
  5
D78
330
17
100
AcDbEntity
  8
OBJECT
100
AcDbLine
 10
3.47814896446385
 20
5.11444282112917
 30
0.0
 11
3.978097492888788
 21
5.095692821129169
 31
0.0
  0
LINE
  5
D79
330
17
100
AcDbEntity
  8
OBJECT
100
AcDbLine
 10
3.478148964463852
 20
4.79044282112917
 30
0.0
 11
3.97809749288879
 21
4.80919282112917
 31
0.0
  0
LWPOLYLINE
  5
D85
330
17
100
AcDbEntity
  8
OBJECT
100
AcDbPolyline
 90
        2
 70
     0
 43
0.0075
 10
3.229835099699853
 20
5.050834357862438
 10
3.478148964463852
 20
5.069584357862438
  0
LWPOLYLINE
  5
D86
330
17
100
AcDbEntity
  8
OBJECT
100
AcDbPolyline
 90
        2
 70
     0
 43
0.0075
 10
3.47814896446385
 20
5.069584357862438
 10
3.835102630647589
 20
5.056197217266122
  0
LWPOLYLINE
  5
D87
330
17
100
AcDbEntity
  8
OBJECT
100
AcDbPolyline
 90
        2
 70
     0
 43
0.0075
 10
3.229835099699852
 20
4.846997378524154
 10
3.478148964463852
 20
4.828247378524154
  0
LWPOLYLINE
  5
D88
330
17
100
AcDbEntity
  8
OBJECT
100
AcDbPolyline
 90
        2
 70
     0
 43
0.0075
 10
3.478148964463852
 20
4.828247378524154
 10
3.835102630647591
 20
4.841634519120468
  0
LWPOLYLINE
  5
D8B
330
17
100
AcDbEntity
  8
OBJECT
100
AcDbPolyline
 90
        2
 70
     0
 43
0.01875
 10
3.230110617106978
 20
5.047213194470121
 10
3.834457571657084
 20
5.051691684629019
  0
LWPOLYLINE
  5
D8C
330
17
100
AcDbEntity
  8
OBJECT
100
AcDbPolyline
 90
        2
 70
     0
 43
0.01875
 10
3.231007258593994
 20
4.851951275872488
 10
3.833560899556477
 20
4.846577087681815
  0
LINE
  5
D8D
330
17
100
AcDbEntity
  8
DIM
 62
     1
100
AcDbLine
 10
4.024972492888788
 20
5.095692821129169
 30
0.0
 11
4.491231158840257
 21
5.095692821129169
 31
0.0
  0
LINE
  5
D8E
330
17
100
AcDbEntity
  8
DIM
 62
     1
100
AcDbLine
 10
4.02497249288879
 20
4.80919282112917
 30
0.0
 11
4.491231158840257
 21
4.80919282112917
 31
0.0
  0
LINE
  5
D8F
330
17
100
AcDbEntity
  8
DIM
 62
     1
100
AcDbLine
 10
4.356231158840257
 20
5.230692821129169
 30
0.0
 11
4.356231158840257
 21
5.36569282112917
 31
0.0
  0
LINE
  5
D90
330
17
100
AcDbEntity
  8
DIM
 62
     1
100
AcDbLine
 10
4.356231158840257
 20
4.67419282112917
 30
0.0
 11
4.356231158840257
 21
4.539192821129169
 31
0.0
  0
SOLID
  5
D91
330
17
100
AcDbEntity
  8
DIM
 62
     1
100
AcDbTrace
 10
4.333731158840257
 20
5.230692821129169
 30
0.0
 11
4.378731158840257
 21
5.230692821129169
 31
0.0
 12
4.356231158840257
 22
5.095692821129169
 32
0.0
 13
4.356231158840257
 23
5.095692821129169
 33
0.0
  0
SOLID
  5
D92
330
17
100
AcDbEntity
  8
DIM
 62
     1
100
AcDbTrace
 10
4.333731158840257
 20
4.67419282112917
 30
0.0
 11
4.378731158840257
 21
4.67419282112917
 31
0.0
 12
4.356231158840257
 22
4.80919282112917
 32
0.0
 13
4.356231158840257
 23
4.80919282112917
 33
0.0
  0
MTEXT
  5
D93
330
17
100
AcDbEntity
  8
DIM
 62
     7
100
AcDbMText
 10
3.971435975336994
 20
4.516808680274341
 30
0.0
 40
0.09375
 41
0.0
 71
     5
 72
     1
  1
6.5
 73
     1
 44
1.0
  0
MTEXT
  5
D94
330
17
100
AcDbEntity
  8
DIM
 62
     7
100
AcDbMText
 10
3.950748075412581
 20
4.335611306210616
 30
0.0
 40
0.09375
 41
0.0
 71
     5
 72
     1
  1
(.256)
 73
     1
 44
1.0
  0
LINE
  5
D95
330
17
100
AcDbEntity
  8
DIM
100
AcDbLine
 10
4.356231158840257
 20
4.539192821129169
 30
0.0
 11
4.12535407322918
 21
4.539192821129169
 31
0.0
  0
LINE
  5
D9A
330
17
100
AcDbEntity
  8
OBJECT
100
AcDbLine
 10
3.495009112239273
 20
0.4193731146132223
 30
0.0
 11
4.07495641081266
 21
0.4193731146132223
 31
0.0
  0
LINE
  5
D9B
330
17
100
AcDbEntity
  8
OBJECT
100
AcDbLine
 10
3.605686068576602
 20
0.3441933819380232
 30
0.0
 11
3.694227675439805
 21
0.4857081966953772
 31
0.0
  0
LINE
  5
D9C
330
17
100
AcDbEntity
  8
OBJECT
100
AcDbLine
 10
3.773915017133347
 20
0.3441933819380232
 30
0.0
 11
3.86245662399655
 21
0.4857081966953772
 31
0.0
  0
TEXT
  5
D9D
330
17
100
AcDbEntity
  8
FORM
100
AcDbText
 10
7.195230382652418
 20
0.9578146468911796
 30
0.0
 40
0.2
  1
34 mm
100
AcDbText
  0
CIRCLE
  5
DB4
102
{ACAD_REACTORS
330
DC5
102
}
330
17
100
AcDbEntity
  8
OBJECT
100
AcDbCircle
 10
6.350876604038873
 20
4.95244282112917
 30
0.0
 40
0.9102558934613043
  0
TEXT
  5
DBE
330
17
100
AcDbEntity
  8
FORM
100
AcDbText
 10
7.38741922594947
 20
1.240064685856683
 30
0.0
 40
0.2
  1
MICRO
100
AcDbText
  0
HATCH
  5
DC5
330
17
100
AcDbEntity
  8
OBJECT
100
AcDbHatch
 10
0.0
 20
0.0
 30
0.0
210
0.0
220
0.0
230
1.0
  2
HONEY
 70
     0
 71
     1
 91
        1
 92
        7
 72
     1
 73
     1
 93
        2
 10
5.440620710577569
 20
4.95244282112917
 42
1.0
 10
7.261132497500177
 20
4.95244282112917
 42
1.0
 97
        1
330
DB4
 75
     0
 76
     1
 52
0.0
 41
0.2
 77
     0
 78
     3
 53
0.0
 43
0.0
 44
0.0
 45
0.0375
 46
0.021650635
 79
     2
 49
0.025
 49
-0.05
 53
120.0
 43
0.0
 44
0.0
 45
-0.0374999999180645
 46
0.0216506351419165
 79
     2
 49
0.025
 49
-0.05
 53
60.0
 43
0.0
 44
0.0
 45
0.0000000000819355
 46
0.0433012701419165
 79
     2
 49
-0.05
 49
0.025
 47
0.0041680753267429
 98
        1
 10
6.879195346585778
 20
5.555319525469396
  0
LINE
  5
E04
330
17
100
AcDbEntity
  8
OBJECT
100
AcDbLine
 10
2.87863746444643
 20
4.081225144717127
 30
0.0
 11
2.87863746444643
 21
5.837486413353587
 31
0.0
  0
LINE
  5
E05
330
17
100
AcDbEntity
  8
OBJECT
100
AcDbLine
 10
3.228636609257603
 20
4.941881788281156
 30
0.0
 11
3.228636609257602
 21
4.151908882650464
 31
0.0
  0
LINE
  5
E06
330
17
100
AcDbEntity
  8
OBJECT
100
AcDbLine
 10
3.153636609257604
 20
4.941881788281156
 30
0.0
 11
3.153636609257603
 21
3.95820680086707
 31
0.0
  0
LINE
  5
E07
330
17
100
AcDbEntity
  8
OBJECT
100
AcDbLine
 10
2.930826973164599
 20
4.941881788281157
 30
0.0
 11
2.930826973164598
 21
4.039508625409074
 31
0.0
  0
LINE
  5
E08
330
17
100
AcDbEntity
  8
OBJECT
100
AcDbLine
 10
2.904089818221549
 20
4.941881788281157
 30
0.0
 11
2.904089818221549
 21
4.039508625409074
 31
0.0
  0
LINE
  5
E09
330
17
100
AcDbEntity
  8
OBJECT
100
AcDbLine
 10
3.153636609257603
 20
4.039508625409072
 30
0.0
 11
2.90408981822155
 21
4.039508625409073
 31
0.0
  0
LINE
  5
E0A
330
17
100
AcDbEntity
  8
OBJECT
100
AcDbLine
 10
3.215415796121956
 20
3.937434582143503
 30
0.0
 11
2.963616046894005
 21
3.937434582143503
 31
0.0
  0
LINE
  5
E0B
330
17
100
AcDbEntity
  8
OBJECT
100
AcDbLine
 10
2.963616046894006
 20
3.98040346813483
 30
0.0
 11
2.963616046894006
 21
3.937434582143504
 31
0.0
  0
LINE
  5
E0C
330
17
100
AcDbEntity
  8
OBJECT
100
AcDbLine
 10
2.963616046894006
 20
3.98040346813483
 30
0.0
 11
2.861123608044723
 21
3.98040346813483
 31
0.0
  0
LINE
  5
E0D
330
17
100
AcDbEntity
  8
OBJECT
100
AcDbLine
 10
2.861123608044723
 20
4.081225144717127
 30
0.0
 11
2.861123608044723
 21
3.98040346813483
 31
0.0
  0
LINE
  5
E0E
330
17
100
AcDbEntity
  8
OBJECT
100
AcDbLine
 10
2.87863746444643
 20
4.081225144717127
 30
0.0
 11
2.861123608044723
 21
4.081225144717127
 31
0.0
  0
LINE
  5
E0F
330
17
100
AcDbEntity
  8
OBJECT
100
AcDbLine
 10
3.215415796121956
 20
3.958206800867071
 30
0.0
 11
3.215415796121956
 21
3.937434582143503
 31
0.0
  0
LINE
  5
E10
330
17
100
AcDbEntity
  8
OBJECT
100
AcDbLine
 10
3.223132925638954
 20
4.151908882650465
 30
0.0
 11
3.223132925638954
 21
4.037650121957671
 31
0.0
  0
LINE
  5
E11
330
17
100
AcDbEntity
  8
OBJECT
100
AcDbLine
 10
3.228636609257602
 20
3.958206800867071
 30
0.0
 11
3.153636609257603
 21
3.958206800867071
 31
0.0
  0
LINE
  5
E12
330
17
100
AcDbEntity
  8
OBJECT
100
AcDbLine
 10
3.228636609257603
 20
4.037650121957671
 30
0.0
 11
3.223132925638954
 21
4.037650121957672
 31
0.0
  0
LINE
  5
E13
330
17
100
AcDbEntity
  8
OBJECT
100
AcDbLine
 10
3.228636609257602
 20
4.037650121957671
 30
0.0
 11
3.228636609257602
 21
3.958206800867071
 31
0.0
  0
LINE
  5
E14
330
17
100
AcDbEntity
  8
OBJECT
100
AcDbLine
 10
3.228636609257602
 20
4.151908882650464
 30
0.0
 11
3.223132925638954
 21
4.151908882650464
 31
0.0
  0
MTEXT
  5
E17
330
17
100
AcDbEntity
  8
DIM
 62
     7
100
AcDbMText
 10
3.726142722194138
 20
6.449929035128509
 30
0.0
 40
0.09375
 41
0.0
 71
     5
 72
     1
  1
(.291)
 73
     1
 44
1.0
  0
LINE
  5
E18
330
17
100
AcDbEntity
  8
OBJECT
100
AcDbLine
 10
2.904089818221549
 20
4.941881788281155
 30
0.0
 11
2.904089818221549
 21
5.868693854377368
 31
0.0
  0
LINE
  5
E19
330
17
100
AcDbEntity
  8
OBJECT
100
AcDbLine
 10
2.930826973164599
 20
4.941881788281155
 30
0.0
 11
2.930826973164598
 21
5.868693854377368
 31
0.0
  0
LINE
  5
E1A
330
17
100
AcDbEntity
  8
OBJECT
100
AcDbLine
 10
3.153636609257604
 20
4.941881788281156
 30
0.0
 11
3.153636609257603
 21
5.949995678919371
 31
0.0
  0
LINE
  5
E1B
330
17
100
AcDbEntity
  8
OBJECT
100
AcDbLine
 10
3.228636609257603
 20
4.941881788281156
 30
0.0
 11
3.228636609257602
 21
5.756293597135978
 31
0.0
  0
SOLID
  5
E1C
330
17
100
AcDbEntity
  8
DIM
 62
     1
100
AcDbTrace
 10
4.113097492888788
 20
6.209930154124683
 30
0.0
 11
4.113097492888788
 21
6.164930154124683
 31
0.0
 12
3.978097492888788
 22
6.187430154124683
 32
0.0
 13
3.978097492888788
 23
6.187430154124683
 33
0.0
  0
LINE
  5
E1D
330
17
100
AcDbEntity
  8
OBJECT
100
AcDbLine
 10
3.215415796121956
 20
5.970767897642939
 30
0.0
 11
2.963616046894005
 21
5.970767897642939
 31
0.0
  0
LINE
  5
E1E
330
17
100
AcDbEntity
  8
OBJECT
100
AcDbLine
 10
3.153636609257603
 20
5.86869385437737
 30
0.0
 11
2.90408981822155
 21
5.868693854377369
 31
0.0
  0
MTEXT
  5
E20
330
17
100
AcDbEntity
  8
DIM
 62
     7
100
AcDbMText
 10
3.659662548044254
 20
6.011064340277184
 30
0.0
 40
0.09375
 41
0.0
 71
     5
 72
     1
  1
(.496)
 73
     1
 44
1.0
  0
LINE
  5
E21
330
17
100
AcDbEntity
  8
DIM
 62
     1
100
AcDbLine
 10
2.862425303360048
 20
6.017642897642939
 30
0.0
 11
2.862425303360048
 21
6.77047996621113
 31
0.0
  0
LINE
  5
E25
330
17
100
AcDbEntity
  8
OBJECT
100
AcDbLine
 10
2.861123608044723
 20
5.837486413353587
 30
0.0
 11
2.861123608044723
 21
5.927799011651612
 31
0.0
  0
LINE
  5
E28
330
17
100
AcDbEntity
  8
OBJECT
100
AcDbLine
 10
2.87863746444643
 20
5.837486413353587
 30
0.0
 11
2.861123608044723
 21
5.837486413353587
 31
0.0
  0
LINE
  5
E2B
330
17
100
AcDbEntity
  8
OBJECT
100
AcDbLine
 10
2.963616046894006
 20
5.927799011651612
 30
0.0
 11
2.861123608044723
 21
5.927799011651612
 31
0.0
  0
LINE
  5
E2C
330
17
100
AcDbEntity
  8
OBJECT
100
AcDbLine
 10
2.963616046894006
 20
5.927799011651612
 30
0.0
 11
2.963616046894006
 21
5.970767897642938
 31
0.0
  0
LINE
  5
E2D
330
17
100
AcDbEntity
  8
DIM
 62
     1
100
AcDbLine
 10
3.095942061238856
 20
6.187430154124683
 30
0.0
 11
2.960942061238856
 21
6.187430154124683
 31
0.0
  0
LINE
  5
E2E
330
17
100
AcDbEntity
  8
DIM
 62
     1
100
AcDbLine
 10
2.727425303360047
 20
6.63547996621113
 30
0.0
 11
2.592425303360048
 21
6.63547996621113
 31
0.0
  0
MTEXT
  5
E2F
330
17
100
AcDbEntity
  8
DIM
 62
     7
100
AcDbMText
 10
3.639515264942195
 20
6.196615271359805
 30
0.0
 40
0.09375
 41
0.0
 71
     5
 72
     1
  1
12.6
 73
     1
 44
1.0
  0
SOLID
  5
E30
330
17
100
AcDbEntity
  8
DIM
 62
     1
100
AcDbTrace
 10
3.095942061238856
 20
6.209930154124683
 30
0.0
 11
3.095942061238856
 21
6.164930154124683
 31
0.0
 12
3.230942061238856
 22
6.187430154124683
 32
0.0
 13
3.230942061238856
 23
6.187430154124683
 33
0.0
  0
SOLID
  5
E31
330
17
100
AcDbEntity
  8
DIM
 62
     1
100
AcDbTrace
 10
2.727425303360047
 20
6.65797996621113
 30
0.0
 11
2.727425303360047
 21
6.61297996621113
 31
0.0
 12
2.862425303360048
 22
6.63547996621113
 32
0.0
 13
2.862425303360048
 23
6.63547996621113
 33
0.0
  0
LINE
  5
E32
330
17
100
AcDbEntity
  8
DIM
 62
     1
100
AcDbLine
 10
3.230942061238856
 20
6.017642897642939
 30
0.0
 11
3.230942061238856
 21
6.77047996621113
 31
0.0
  0
LINE
  5
E33
330
17
100
AcDbEntity
  8
OBJECT
100
AcDbLine
 10
3.228636609257602
 20
5.870552357828771
 30
0.0
 11
3.228636609257602
 21
5.94999567891937
 31
0.0
  0
LINE
  5
E34
330
17
100
AcDbEntity
  8
OBJECT
100
AcDbLine
 10
3.223132925638954
 20
5.756293597135977
 30
0.0
 11
3.223132925638954
 21
5.870552357828771
 31
0.0
  0
LINE
  5
E35
330
17
100
AcDbEntity
  8
OBJECT
100
AcDbLine
 10
3.228636609257603
 20
5.870552357828771
 30
0.0
 11
3.223132925638954
 21
5.87055235782877
 31
0.0
  0
LINE
  5
E36
330
17
100
AcDbEntity
  8
OBJECT
100
AcDbLine
 10
3.228636609257602
 20
5.756293597135978
 30
0.0
 11
3.223132925638954
 21
5.756293597135978
 31
0.0
  0
LINE
  5
E37
330
17
100
AcDbEntity
  8
OBJECT
100
AcDbLine
 10
3.228636609257602
 20
5.94999567891937
 30
0.0
 11
3.153636609257603
 21
5.94999567891937
 31
0.0
  0
LINE
  5
E38
330
17
100
AcDbEntity
  8
OBJECT
100
AcDbLine
 10
3.215415796121956
 20
5.94999567891937
 30
0.0
 11
3.215415796121956
 21
5.970767897642939
 31
0.0
  0
LINE
  5
E39
330
17
100
AcDbEntity
  8
DIM
 62
     1
100
AcDbLine
 10
3.365942061238856
 20
6.63547996621113
 30
0.0
 11
3.500942061238856
 21
6.63547996621113
 31
0.0
  0
LINE
  5
E3A
330
17
100
AcDbEntity
  8
DIM
 62
     1
100
AcDbLine
 10
4.113097492888788
 20
6.187430154124683
 30
0.0
 11
4.205323222631136
 21
6.187430154124683
 31
0.0
  0
SOLID
  5
E3B
330
17
100
AcDbEntity
  8
DIM
 62
     1
100
AcDbTrace
 10
3.365942061238856
 20
6.65797996621113
 30
0.0
 11
3.365942061238856
 21
6.61297996621113
 31
0.0
 12
3.230942061238856
 22
6.63547996621113
 32
0.0
 13
3.230942061238856
 23
6.63547996621113
 33
0.0
  0
MTEXT
  5
E3C
330
17
100
AcDbEntity
  8
DIM
 62
     7
100
AcDbMText
 10
3.705995439092079
 20
6.63547996621113
 30
0.0
 40
0.09375
 41
0.0
 71
     5
 72
     1
  1
7.4
 73
     1
 44
1.0
  0
LINE
  5
E3D
330
17
100
AcDbEntity
  8
DIM
 62
     1
100
AcDbLine
 10
3.978097492888788
 20
5.144570607786828
 30
0.0
 11
3.978097492888788
 21
6.263991204926394
 31
0.0
  0
LINE
  5
E3E
330
17
100
AcDbEntity
  8
DIM
 62
     1
100
AcDbLine
 10
3.230942061238856
 20
3.53098470238886
 30
0.0
 11
3.230942061238856
 21
3.874470171638744
 31
0.0
  0
LINE
  5
E3F
330
17
100
AcDbEntity
  8
DIM
 62
     1
100
AcDbLine
 10
3.432714331282717
 20
3.53098470238886
 30
0.0
 11
3.432714331282717
 21
4.766490060157146
 31
0.0
  0
LINE
  5
E40
330
17
100
AcDbEntity
  8
DIM
 62
     1
100
AcDbLine
 10
3.095942061238856
 20
3.664113584243796
 30
0.0
 11
2.960942061238856
 21
3.664113584243796
 31
0.0
  0
SOLID
  5
E41
330
17
100
AcDbEntity
  8
DIM
 62
     1
100
AcDbTrace
 10
3.095942061238856
 20
3.686613584243796
 30
0.0
 11
3.095942061238856
 21
3.641613584243796
 31
0.0
 12
3.230942061238856
 22
3.664113584243796
 32
0.0
 13
3.230942061238856
 23
3.664113584243796
 33
0.0
  0
LINE
  5
E42
330
17
100
AcDbEntity
  8
DIM
 62
     1
100
AcDbLine
 10
3.56892385062643
 20
3.664113584243796
 30
0.0
 11
3.661149580368778
 21
3.664113584243796
 31
0.0
  0
SOLID
  5
E43
330
17
100
AcDbEntity
  8
DIM
 62
     1
100
AcDbTrace
 10
3.56892385062643
 20
3.686613584243796
 30
0.0
 11
3.56892385062643
 21
3.641613584243796
 31
0.0
 12
3.43392385062643
 22
3.664113584243796
 32
0.0
 13
3.43392385062643
 23
3.664113584243796
 33
0.0
  0
MTEXT
  5
E44
330
17
100
AcDbEntity
  8
DIM
 62
     7
100
AcDbMText
 10
3.910292876873278
 20
3.673666578413603
 30
0.0
 40
0.09375
 41
0.0
 71
     5
 72
     1
  1
~2-3
 73
     1
 44
1.0
  0
TEXT
  5
E62
330
17
100
AcDbEntity
  8
FORM
100
AcDbText
 10
4.536379494491475
 20
0.7408350762239318
 30
0.0
 40
0.06
  1
ROCKWELL AUTOMATION AND MAY
 72
     1
 11
5.303522351634332
 21
0.7408350762239318
 31
0.0
100
AcDbText
  0
TEXT
  5
E63
330
17
100
AcDbEntity
  8
FORM
100
AcDbText
 10
4.673522351634332
 20
0.3522636476525029
 30
0.0
 40
0.06
  1
BY ROCKWELL AUTOMATION.
 72
     1
 11
5.303522351634332
 21
0.3522636476525029
 31
0.0
100
AcDbText
  0
MTEXT
  5
E6F
330
17
100
AcDbEntity
  8
DIM
 62
     7
100
AcDbMText
 10
4.723997923849511
 20
3.54486408911027
 30
0.0
 40
0.125
 41
0.0
 71
     1
 72
     1
  1
NOTES:
 73
     1
 44
1.0
  0
MTEXT
  5
E71
330
17
100
AcDbEntity
  8
DIM
 62
     7
100
AcDbMText
 10
5.135165656499774
 20
3.051283364039961
 30
0.0
 40
0.125
 41
0.0
 71
     1
 72
     1
  1
1. UNLESS OTHERWISE SPECIFIED ALL\PDIMENSIONS ARE mm (INCHES)\PAND ARE FOR REFERENCE ONLY.
 73
     1
 44
1.0
  0
TEXT
  5
E72
330
17
100
AcDbEntity
  8
FORM
100
AcDbText
 10
9.266258142847716
 20
1.619433408912847
 30
0.0
 40
0.15
  1
ROCKWELL
100
AcDbText
  0
TEXT
  5
E73
330
17
100
AcDbEntity
  8
FORM
100
AcDbText
 10
9.266258142847716
 20
1.406147490675127
 30
0.0
 40
0.15
  1
AUTOMATION
100
AcDbText
  0
TEXT
  5
E74
330
17
100
AcDbEntity
  8
FORM
100
AcDbText
 10
9.418841673999887
 20
1.199271220002631
 30
0.0
 40
0.07
  1
2 EXECUTIVE DRIVE
100
AcDbText
  0
TEXT
  5
E75
330
17
100
AcDbEntity
  8
FORM
100
AcDbText
 10
9.294506914046444
 20
1.041900775029183
 30
0.0
 40
0.07
  1
CHELMSFORD, MA. 01824
100
AcDbText
  0
ENDSEC
  0
SECTION
  2
OBJECTS
  0
DICTIONARY
  5
C
330
0
100
AcDbDictionary
281
     1
  3
ACAD_COLOR
350
EA3
  3
ACAD_GROUP
350
D
  3
ACAD_LAYOUT
350
E50
  3
ACAD_MATERIAL
350
E79
  3
ACAD_MLEADERSTYLE
350
EC8
  3
ACAD_MLINESTYLE
350
1A
  3
ACAD_PLOTSETTINGS
350
E51
  3
ACAD_PLOTSTYLENAME
350
E4E
  3
ACAD_SCALELIST
350
EA6
  3
ACAD_TABLESTYLE
350
EA4
  3
ACAD_VISUALSTYLE
350
E92
  3
ACDB_RECOMPOSE_DATA
350
EEC
  3
ACDBVARIABLEDICTIONARY
350
2C
  0
DICTIONARY
  5
ECD
330
E
100
AcDbDictionary
280
     1
281
     1
  3
ADSK_XREC_LAYER_RECONCILED
360
ECE
  0
DICTIONARY
  5
ECF
330
21
100
AcDbDictionary
280
     1
281
     1
  3
ADSK_XREC_LAYER_RECONCILED
360
ED0
  0
DICTIONARY
  5
ED1
330
22
100
AcDbDictionary
280
     1
281
     1
  3
ADSK_XREC_LAYER_RECONCILED
360
ED2
  0
DICTIONARY
  5
ED3
330
23
100
AcDbDictionary
280
     1
281
     1
  3
ADSK_XREC_LAYER_RECONCILED
360
ED4
  0
DICTIONARY
  5
ED5
330
24
100
AcDbDictionary
280
     1
281
     1
  3
ADSK_XREC_LAYER_RECONCILED
360
ED6
  0
DICTIONARY
  5
ED7
330
25
100
AcDbDictionary
280
     1
281
     1
  3
ADSK_XREC_LAYER_RECONCILED
360
ED8
  0
DICTIONARY
  5
ED9
330
26
100
AcDbDictionary
280
     1
281
     1
  3
ADSK_XREC_LAYER_RECONCILED
360
EDA
  0
DICTIONARY
  5
EDB
330
27
100
AcDbDictionary
280
     1
281
     1
  3
ADSK_XREC_LAYER_RECONCILED
360
EDC
  0
DICTIONARY
  5
EDD
330
C30
100
AcDbDictionary
280
     1
281
     1
  3
ADSK_XREC_LAYER_RECONCILED
360
EDE
  0
DICTIONARY
  5
EA3
102
{ACAD_REACTORS
330
C
102
}
330
C
100
AcDbDictionary
281
     1
  0
DICTIONARY
  5
D
102
{ACAD_REACTORS
330
C
102
}
330
C
100
AcDbDictionary
281
     1
  0
DICTIONARY
  5
E50
102
{ACAD_REACTORS
330
C
102
}
330
C
100
AcDbDictionary
281
     1
  3
Layout1
350
E53
  3
Model
350
E52
  0
DICTIONARY
  5
E79
102
{ACAD_REACTORS
330
C
102
}
330
C
100
AcDbDictionary
281
     1
  3
ByBlock
350
E82
  3
ByLayer
350
E7A
  3
Global
350
E8A
  0
DICTIONARY
  5
EC8
102
{ACAD_REACTORS
330
C
102
}
330
C
100
AcDbDictionary
281
     1
  3
Standard
350
EC9
  0
DICTIONARY
  5
1A
102
{ACAD_REACTORS
330
C
102
}
330
C
100
AcDbDictionary
281
     1
  3
STANDARD
350
1B
  0
DICTIONARY
  5
E51
102
{ACAD_REACTORS
330
C
102
}
330
C
100
AcDbDictionary
281
     1
  0
ACDBDICTIONARYWDFLT
  5
E4E
102
{ACAD_REACTORS
330
C
102
}
330
C
100
AcDbDictionary
281
     1
  3
Normal
350
E4F
100
AcDbDictionaryWithDefault
340
E4F
  0
DICTIONARY
  5
EA6
102
{ACAD_REACTORS
330
C
102
}
330
C
100
AcDbDictionary
281
     1
  3
A0
350
EA7
  3
A1
350
EA8
  3
A2
350
EA9
  3
A3
350
EAA
  3
A4
350
EAB
  3
A5
350
EAC
  3
A6
350
EAD
  3
A7
350
EAE
  3
A8
350
EAF
  3
A9
350
EB0
  3
B0
350
EB1
  3
B1
350
EB2
  3
B2
350
EB3
  3
B3
350
EB4
  3
B4
350
EB5
  3
B5
350
EB6
  3
B6
350
EB7
  3
B7
350
EB8
  3
B8
350
EB9
  3
B9
350
EBA
  3
C0
350
EBB
  3
C1
350
EBC
  3
C2
350
EBD
  3
C3
350
EBE
  3
C4
350
EBF
  3
C5
350
EC0
  3
C6
350
EC1
  3
C7
350
EC2
  3
C8
350
EC3
  3
C9
350
EC4
  3
D0
350
EC5
  3
D1
350
EC6
  3
D2
350
EC7
  0
DICTIONARY
  5
EA4
102
{ACAD_REACTORS
330
C
102
}
330
C
100
AcDbDictionary
281
     1
  3
Standard
350
EA5
  0
DICTIONARY
  5
E92
102
{ACAD_REACTORS
330
C
102
}
330
C
100
AcDbDictionary
281
     1
  3
2dWireframe
350
E98
  3
3D Hidden
350
E9A
  3
3dWireframe
350
E99
  3
Basic
350
E97
  3
Brighten
350
E9E
  3
ColorChange
350
EA2
  3
Conceptual
350
E9B
  3
Dim
350
E9D
  3
Facepattern
350
EA1
  3
Flat
350
E93
  3
FlatWithEdges
350
E94
  3
Gouraud
350
E95
  3
GouraudWithEdges
350
E96
  3
Linepattern
350
EA0
  3
Realistic
350
E9C
  3
Thicken
350
E9F
  0
XRECORD
  5
EEC
102
{ACAD_REACTORS
330
C
102
}
330
C
100
AcDbXrecord
280
     1
 90
        1
330
EA5
  0
DICTIONARY
  5
2C
102
{ACAD_REACTORS
330
C
102
}
330
C
100
AcDbDictionary
281
     1
  3
CANNOSCALE
350
EE9
  3
CMLEADERSTYLE
350
EE8
  3
CTABLESTYLE
350
EE7
  3
DIMADEC
350
2D
  3
DIMASSOC
350
E77
  3
SORTENTS
350
18C
  0
XRECORD
  5
ECE
102
{ACAD_REACTORS
330
ECD
102
}
330
ECD
100
AcDbXrecord
280
     1
290
     1
  0
XRECORD
  5
ED0
102
{ACAD_REACTORS
330
ECF
102
}
330
ECF
100
AcDbXrecord
280
     1
290
     1
  0
XRECORD
  5
ED2
102
{ACAD_REACTORS
330
ED1
102
}
330
ED1
100
AcDbXrecord
280
     1
290
     1
  0
XRECORD
  5
ED4
102
{ACAD_REACTORS
330
ED3
102
}
330
ED3
100
AcDbXrecord
280
     1
290
     1
  0
XRECORD
  5
ED6
102
{ACAD_REACTORS
330
ED5
102
}
330
ED5
100
AcDbXrecord
280
     1
290
     1
  0
XRECORD
  5
ED8
102
{ACAD_REACTORS
330
ED7
102
}
330
ED7
100
AcDbXrecord
280
     1
290
     1
  0
XRECORD
  5
EDA
102
{ACAD_REACTORS
330
ED9
102
}
330
ED9
100
AcDbXrecord
280
     1
290
     1
  0
XRECORD
  5
EDC
102
{ACAD_REACTORS
330
EDB
102
}
330
EDB
100
AcDbXrecord
280
     1
290
     1
  0
XRECORD
  5
EDE
102
{ACAD_REACTORS
330
EDD
102
}
330
EDD
100
AcDbXrecord
280
     1
290
     1
  0
LAYOUT
  5
E53
102
{ACAD_REACTORS
330
E50
102
}
330
E50
100
AcDbPlotSettings
  1

  2
Fax
  4

  6

 40
0.0
 41
0.0
 42
0.0
 43
0.0
 44
0.0
 45
0.0
 46
0.0
 47
0.0
 48
0.0
 49
0.0
140
0.0
141
0.0
142
1.0
143
1.0
 70
   688
 72
     0
 73
     0
 74
     5
  7
standard.ctb
 75
    16
147
1.0
 76
     0
 77
     2
 78
   300
148
0.0
149
0.0
100
AcDbLayout
  1
Layout1
 70
     0
 71
     1
 10
0.0
 20
0.0
 11
12.0
 21
9.0
 12
0.0
 22
0.0
 32
0.0
 14
1.000000000000000E+20
 24
1.000000000000000E+20
 34
1.000000000000000E+20
 15
-1.000000000000000E+20
 25
-1.000000000000000E+20
 35
-1.000000000000000E+20
146
0.0
 13
0.0
 23
0.0
 33
0.0
 16
1.0
 26
0.0
 36
0.0
 17
0.0
 27
1.0
 37
0.0
 76
     0
330
14
  0
LAYOUT
  5
E52
102
{ACAD_REACTORS
330
E50
102
}
330
E50
100
AcDbPlotSettings
  1

  2
\\PRINT\maxinecal
  4
Letter
  6

 40
7.143749713897705
 41
6.720414161682128
 42
7.14373779296875
 43
5.027069091796875
 44
215.8999938964844
 45
279.3999938964844
 46
0.0
 47
0.0
 48
0.0
 49
0.0
140
0.0
141
0.0
142
1.0
143
1.003119969975157
 70
 11952
 72
     0
 73
     1
 74
     1
  7
standard.ctb
 75
     0
147
0.9968897339614974
 76
     0
 77
     2
 78
   300
148
-6.343799486039062
149
-6.302135214607808
100
AcDbLayout
  1
Model
 70
     1
 71
     0
 10
0.0
 20
0.0
 11
12.0
 21
9.0
 12
0.0
 22
0.0
 32
0.0
 14
0.0
 24
0.0
 34
0.0
 15
0.0
 25
0.0
 35
0.0
146
0.0
 13
0.0
 23
0.0
 33
0.0
 16
1.0
 26
0.0
 36
0.0
 17
0.0
 27
1.0
 37
0.0
 76
     0
330
17
331
E76
  0
MATERIAL
  5
E82
102
{ACAD_XDICTIONARY
360
E83
102
}
102
{ACAD_REACTORS
330
E79
102
}
330
E79
100
AcDbMaterial
  1
ByBlock
 72
     0
 43
0.0208333333333333
 43
0.0
 43
0.0
 43
0.0
 43
0.0
 43
0.0208333333333333
 43
0.0
 43
0.0
 43
0.0
 43
0.0
 43
1.0
 43
0.0
 43
0.0
 43
0.0
 43
0.0
 43
1.0
 77
     0
 47
0.0208333333333333
 47
0.0
 47
0.0
 47
0.0
 47
0.0
 47
0.0208333333333333
 47
0.0
 47
0.0
 47
0.0
 47
0.0
 47
1.0
 47
0.0
 47
0.0
 47
0.0
 47
0.0
 47
1.0
171
     0
 49
0.0208333333333333
 49
0.0
 49
0.0
 49
0.0
 49
0.0
 49
0.0208333333333333
 49
0.0
 49
0.0
 49
0.0
 49
0.0
 49
1.0
 49
0.0
 49
0.0
 49
0.0
 49
0.0
 49
1.0
175
     0
142
0.0208333333333333
142
0.0
142
0.0
142
0.0
142
0.0
142
0.0208333333333333
142
0.0
142
0.0
142
0.0
142
0.0
142
1.0
142
0.0
142
0.0
142
0.0
142
0.0
142
1.0
179
     0
144
0.0208333333333333
144
0.0
144
0.0
144
0.0
144
0.0
144
0.0208333333333333
144
0.0
144
0.0
144
0.0
144
0.0
144
1.0
144
0.0
144
0.0
144
0.0
144
0.0
144
1.0
147
0.0208333333333333
147
0.0
147
0.0
147
0.0
147
0.0
147
0.0208333333333333
147
0.0
147
0.0
147
0.0
147
0.0
147
1.0
147
0.0
147
0.0
147
0.0
147
0.0
147
1.0
  0
MATERIAL
  5
E7A
102
{ACAD_XDICTIONARY
360
E7B
102
}
102
{ACAD_REACTORS
330
E79
102
}
330
E79
100
AcDbMaterial
  1
ByLayer
 72
     0
 43
0.0208333333333333
 43
0.0
 43
0.0
 43
0.0
 43
0.0
 43
0.0208333333333333
 43
0.0
 43
0.0
 43
0.0
 43
0.0
 43
1.0
 43
0.0
 43
0.0
 43
0.0
 43
0.0
 43
1.0
 77
     0
 47
0.0208333333333333
 47
0.0
 47
0.0
 47
0.0
 47
0.0
 47
0.0208333333333333
 47
0.0
 47
0.0
 47
0.0
 47
0.0
 47
1.0
 47
0.0
 47
0.0
 47
0.0
 47
0.0
 47
1.0
171
     0
 49
0.0208333333333333
 49
0.0
 49
0.0
 49
0.0
 49
0.0
 49
0.0208333333333333
 49
0.0
 49
0.0
 49
0.0
 49
0.0
 49
1.0
 49
0.0
 49
0.0
 49
0.0
 49
0.0
 49
1.0
175
     0
142
0.0208333333333333
142
0.0
142
0.0
142
0.0
142
0.0
142
0.0208333333333333
142
0.0
142
0.0
142
0.0
142
0.0
142
1.0
142
0.0
142
0.0
142
0.0
142
0.0
142
1.0
179
     0
144
0.0208333333333333
144
0.0
144
0.0
144
0.0
144
0.0
144
0.0208333333333333
144
0.0
144
0.0
144
0.0
144
0.0
144
1.0
144
0.0
144
0.0
144
0.0
144
0.0
144
1.0
147
0.0208333333333333
147
0.0
147
0.0
147
0.0
147
0.0
147
0.0208333333333333
147
0.0
147
0.0
147
0.0
147
0.0
147
1.0
147
0.0
147
0.0
147
0.0
147
0.0
147
1.0
  0
MATERIAL
  5
E8A
102
{ACAD_XDICTIONARY
360
E8B
102
}
102
{ACAD_REACTORS
330
E79
102
}
330
E79
100
AcDbMaterial
  1
Global
 72
     0
 43
0.0208333333333333
 43
0.0
 43
0.0
 43
0.0
 43
0.0
 43
0.0208333333333333
 43
0.0
 43
0.0
 43
0.0
 43
0.0
 43
1.0
 43
0.0
 43
0.0
 43
0.0
 43
0.0
 43
1.0
 77
     0
 47
0.0208333333333333
 47
0.0
 47
0.0
 47
0.0
 47
0.0
 47
0.0208333333333333
 47
0.0
 47
0.0
 47
0.0
 47
0.0
 47
1.0
 47
0.0
 47
0.0
 47
0.0
 47
0.0
 47
1.0
171
     0
 49
0.0208333333333333
 49
0.0
 49
0.0
 49
0.0
 49
0.0
 49
0.0208333333333333
 49
0.0
 49
0.0
 49
0.0
 49
0.0
 49
1.0
 49
0.0
 49
0.0
 49
0.0
 49
0.0
 49
1.0
175
     0
142
0.0208333333333333
142
0.0
142
0.0
142
0.0
142
0.0
142
0.0208333333333333
142
0.0
142
0.0
142
0.0
142
0.0
142
1.0
142
0.0
142
0.0
142
0.0
142
0.0
142
1.0
179
     0
144
0.0208333333333333
144
0.0
144
0.0
144
0.0
144
0.0
144
0.0208333333333333
144
0.0
144
0.0
144
0.0
144
0.0
144
1.0
144
0.0
144
0.0
144
0.0
144
0.0
144
1.0
147
0.0208333333333333
147
0.0
147
0.0
147
0.0
147
0.0
147
0.0208333333333333
147
0.0
147
0.0
147
0.0
147
0.0
147
1.0
147
0.0
147
0.0
147
0.0
147
0.0
147
1.0
  0
MLEADERSTYLE
  5
EC9
102
{ACAD_REACTORS
330
EC8
102
}
330
EC8
100
AcDbMLeaderStyle
170
     2
171
     1
172
     0
 90
        2
 40
0.0
 41
0.0
173
     1
 91
-1056964608
340
11
 92
       -2
290
     1
 42
0.09
291
     1
 43
0.36
  3
Standard
 44
0.18
300

342
F
174
     1
178
     6
175
     1
176
     0
 93
-1056964608
 45
0.18
292
     0
297
     0
 46
0.18
 94
-1056964608
 47
1.0
 49
1.0
140
1.0
293
     1
141
0.0
294
     1
177
     0
142
1.0
295
     0
296
     0
143
0.125
1001
ACAD_MLEADERVER
1070
     2
  0
MLINESTYLE
  5
1B
102
{ACAD_REACTORS
330
1A
102
}
330
1A
100
AcDbMlineStyle
  2
STANDARD
 70
     0
  3

 62
   256
 51
90.0
 52
90.0
 71
     2
 49
0.5
 62
   256
  6
BYLAYER
 49
-0.5
 62
   256
  6
BYLAYER
  0
ACDBPLACEHOLDER
  5
E4F
102
{ACAD_REACTORS
330
E4E
102
}
330
E4E
  0
SCALE
  5
EA7
102
{ACAD_REACTORS
330
EA6
102
}
330
EA6
100
AcDbScale
 70
     0
300
1:1
140
1.0
141
1.0
290
     1
  0
SCALE
  5
EA8
102
{ACAD_REACTORS
330
EA6
102
}
330
EA6
100
AcDbScale
 70
     0
300
1:2
140
1.0
141
2.0
290
     0
  0
SCALE
  5
EA9
102
{ACAD_REACTORS
330
EA6
102
}
330
EA6
100
AcDbScale
 70
     0
300
1:4
140
1.0
141
4.0
290
     0
  0
SCALE
  5
EAA
102
{ACAD_REACTORS
330
EA6
102
}
330
EA6
100
AcDbScale
 70
     0
300
1:5
140
1.0
141
5.0
290
     0
  0
SCALE
  5
EAB
102
{ACAD_REACTORS
330
EA6
102
}
330
EA6
100
AcDbScale
 70
     0
300
1:8
140
1.0
141
8.0
290
     0
  0
SCALE
  5
EAC
102
{ACAD_REACTORS
330
EA6
102
}
330
EA6
100
AcDbScale
 70
     0
300
1:10
140
1.0
141
10.0
290
     0
  0
SCALE
  5
EAD
102
{ACAD_REACTORS
330
EA6
102
}
330
EA6
100
AcDbScale
 70
     0
300
1:16
140
1.0
141
16.0
290
     0
  0
SCALE
  5
EAE
102
{ACAD_REACTORS
330
EA6
102
}
330
EA6
100
AcDbScale
 70
     0
300
1:20
140
1.0
141
20.0
290
     0
  0
SCALE
  5
EAF
102
{ACAD_REACTORS
330
EA6
102
}
330
EA6
100
AcDbScale
 70
     0
300
1:30
140
1.0
141
30.0
290
     0
  0
SCALE
  5
EB0
102
{ACAD_REACTORS
330
EA6
102
}
330
EA6
100
AcDbScale
 70
     0
300
1:40
140
1.0
141
40.0
290
     0
  0
SCALE
  5
EB1
102
{ACAD_REACTORS
330
EA6
102
}
330
EA6
100
AcDbScale
 70
     0
300
1:50
140
1.0
141
50.0
290
     0
  0
SCALE
  5
EB2
102
{ACAD_REACTORS
330
EA6
102
}
330
EA6
100
AcDbScale
 70
     0
300
1:100
140
1.0
141
100.0
290
     0
  0
SCALE
  5
EB3
102
{ACAD_REACTORS
330
EA6
102
}
330
EA6
100
AcDbScale
 70
     0
300
2:1
140
2.0
141
1.0
290
     0
  0
SCALE
  5
EB4
102
{ACAD_REACTORS
330
EA6
102
}
330
EA6
100
AcDbScale
 70
     0
300
4:1
140
4.0
141
1.0
290
     0
  0
SCALE
  5
EB5
102
{ACAD_REACTORS
330
EA6
102
}
330
EA6
100
AcDbScale
 70
     0
300
8:1
140
8.0
141
1.0
290
     0
  0
SCALE
  5
EB6
102
{ACAD_REACTORS
330
EA6
102
}
330
EA6
100
AcDbScale
 70
     0
300
10:1
140
10.0
141
1.0
290
     0
  0
SCALE
  5
EB7
102
{ACAD_REACTORS
330
EA6
102
}
330
EA6
100
AcDbScale
 70
     0
300
100:1
140
100.0
141
1.0
290
     0
  0
SCALE
  5
EB8
102
{ACAD_REACTORS
330
EA6
102
}
330
EA6
100
AcDbScale
 70
     0
300
1/128" = 1'-0"
140
0.0078125
141
12.0
290
     0
  0
SCALE
  5
EB9
102
{ACAD_REACTORS
330
EA6
102
}
330
EA6
100
AcDbScale
 70
     0
300
1/64" = 1'-0"
140
0.015625
141
12.0
290
     0
  0
SCALE
  5
EBA
102
{ACAD_REACTORS
330
EA6
102
}
330
EA6
100
AcDbScale
 70
     0
300
1/32" = 1'-0"
140
0.03125
141
12.0
290
     0
  0
SCALE
  5
EBB
102
{ACAD_REACTORS
330
EA6
102
}
330
EA6
100
AcDbScale
 70
     0
300
1/16" = 1'-0"
140
0.0625
141
12.0
290
     0
  0
SCALE
  5
EBC
102
{ACAD_REACTORS
330
EA6
102
}
330
EA6
100
AcDbScale
 70
     0
300
3/32" = 1'-0"
140
0.09375
141
12.0
290
     0
  0
SCALE
  5
EBD
102
{ACAD_REACTORS
330
EA6
102
}
330
EA6
100
AcDbScale
 70
     0
300
1/8" = 1'-0"
140
0.125
141
12.0
290
     0
  0
SCALE
  5
EBE
102
{ACAD_REACTORS
330
EA6
102
}
330
EA6
100
AcDbScale
 70
     0
300
3/16" = 1'-0"
140
0.1875
141
12.0
290
     0
  0
SCALE
  5
EBF
102
{ACAD_REACTORS
330
EA6
102
}
330
EA6
100
AcDbScale
 70
     0
300
1/4" = 1'-0"
140
0.25
141
12.0
290
     0
  0
SCALE
  5
EC0
102
{ACAD_REACTORS
330
EA6
102
}
330
EA6
100
AcDbScale
 70
     0
300
3/8" = 1'-0"
140
0.375
141
12.0
290
     0
  0
SCALE
  5
EC1
102
{ACAD_REACTORS
330
EA6
102
}
330
EA6
100
AcDbScale
 70
     0
300
1/2" = 1'-0"
140
0.5
141
12.0
290
     0
  0
SCALE
  5
EC2
102
{ACAD_REACTORS
330
EA6
102
}
330
EA6
100
AcDbScale
 70
     0
300
3/4" = 1'-0"
140
0.75
141
12.0
290
     0
  0
SCALE
  5
EC3
102
{ACAD_REACTORS
330
EA6
102
}
330
EA6
100
AcDbScale
 70
     0
300
1" = 1'-0"
140
1.0
141
12.0
290
     0
  0
SCALE
  5
EC4
102
{ACAD_REACTORS
330
EA6
102
}
330
EA6
100
AcDbScale
 70
     0
300
1-1/2" = 1'-0"
140
1.5
141
12.0
290
     0
  0
SCALE
  5
EC5
102
{ACAD_REACTORS
330
EA6
102
}
330
EA6
100
AcDbScale
 70
     0
300
3" = 1'-0"
140
3.0
141
12.0
290
     0
  0
SCALE
  5
EC6
102
{ACAD_REACTORS
330
EA6
102
}
330
EA6
100
AcDbScale
 70
     0
300
6" = 1'-0"
140
6.0
141
12.0
290
     0
  0
SCALE
  5
EC7
102
{ACAD_REACTORS
330
EA6
102
}
330
EA6
100
AcDbScale
 70
     0
300
1'-0" = 1'-0"
140
12.0
141
12.0
290
     0
  0
TABLESTYLE
  5
EA5
102
{ACAD_XDICTIONARY
360
EEA
102
}
102
{ACAD_REACTORS
330
EA4
102
}
330
EA4
100
AcDbTableStyle
  3
Standard
 70
     0
 71
     0
 40
0.06
 41
0.06
280
     0
281
     0
  7
STANDARD
140
0.18
170
     2
 62
     0
 63
     7
283
     0
274
    -2
284
     1
 64
     0
275
    -2
285
     1
 65
     0
276
    -2
286
     1
 66
     0
277
    -2
287
     1
 67
     0
278
    -2
288
     1
 68
     0
279
    -2
289
     1
 69
     0
  7
STANDARD
140
0.25
170
     5
 62
     0
 63
     7
283
     0
274
    -2
284
     1
 64
     0
275
    -2
285
     1
 65
     0
276
    -2
286
     1
 66
     0
277
    -2
287
     1
 67
     0
278
    -2
288
     1
 68
     0
279
    -2
289
     1
 69
     0
  7
STANDARD
140
0.18
170
     5
 62
     0
 63
     7
283
     0
274
    -2
284
     1
 64
     0
275
    -2
285
     1
 65
     0
276
    -2
286
     1
 66
     0
277
    -2
287
     1
 67
     0
278
    -2
288
     1
 68
     0
279
    -2
289
     1
 69
     0
  0
VISUALSTYLE
  5
E98
102
{ACAD_REACTORS
330
E92
102
}
330
E92
100
AcDbVisualStyle
  2
2dWireframe
 70
     4
 71
     0
 72
     2
 73
     0
 90
        0
 40
-0.6
 41
-30.0
 62
     5
 63
     7
421
 16777215
 74
     1
 91
        4
 64
     7
 65
   257
 75
     1
175
     1
 42
1.0
 92
        0
 66
   257
 43
1.0
 76
     1
 77
     6
 78
     2
 67
     7
 79
     5
170
     0
171
     0
290
     0
174
     0
 93
        1
 44
0.0
173
     0
291
     0
 45
0.0
1001
ACAD
1000
AcDbSavedByObjectVersion
1070
     0
  0
VISUALSTYLE
  5
E9A
102
{ACAD_REACTORS
330
E92
102
}
330
E92
100
AcDbVisualStyle
  2
3D Hidden
 70
     6
 71
     1
 72
     2
 73
     2
 90
        0
 40
-0.6
 41
-30.0
 62
     5
 63
     7
421
 16777215
 74
     2
 91
        2
 64
     7
 65
   257
 75
     2
175
     1
 42
40.0
 92
        0
 66
   257
 43
1.0
 76
     1
 77
     6
 78
     2
 67
     7
 79
     3
170
     0
171
     0
290
     0
174
     0
 93
        1
 44
0.0
173
     0
291
     0
 45
0.0
1001
ACAD
1000
AcDbSavedByObjectVersion
1070
     0
  0
VISUALSTYLE
  5
E99
102
{ACAD_REACTORS
330
E92
102
}
330
E92
100
AcDbVisualStyle
  2
3dWireframe
 70
     5
 71
     0
 72
     2
 73
     0
 90
        0
 40
-0.6
 41
-30.0
 62
     5
 63
     7
421
 16777215
 74
     1
 91
        4
 64
     7
 65
   257
 75
     1
175
     1
 42
1.0
 92
        0
 66
   257
 43
1.0
 76
     1
 77
     6
 78
     2
 67
     7
 79
     5
170
     0
171
     0
290
     0
174
     0
 93
        1
 44
0.0
173
     0
291
     0
 45
0.0
1001
ACAD
1000
AcDbSavedByObjectVersion
1070
     0
  0
VISUALSTYLE
  5
E97
102
{ACAD_REACTORS
330
E92
102
}
330
E92
100
AcDbVisualStyle
  2
Basic
 70
     7
 71
     1
 72
     0
 73
     1
 90
        0
 40
-0.6
 41
-30.0
 62
     5
 63
     7
421
 16777215
 74
     0
 91
        4
 64
     7
 65
   257
 75
     1
175
     1
 42
1.0
 92
        8
 66
     7
 43
1.0
 76
     1
 77
     6
 78
     2
 67
     7
 79
     5
170
     0
171
     0
290
     0
174
     0
 93
        1
 44
0.0
173
     0
291
     1
 45
0.0
1001
ACAD
1000
AcDbSavedByObjectVersion
1070
     0
  0
VISUALSTYLE
  5
E9E
102
{ACAD_REACTORS
330
E92
102
}
330
E92
100
AcDbVisualStyle
  2
Brighten
 70
    12
 71
     2
 72
     2
 73
     0
 90
        0
 40
-0.6
 41
-30.0
 62
     5
 63
     7
421
 16777215
 74
     1
 91
        4
 64
     7
 65
   257
 75
     1
175
     1
 42
1.0
 92
        8
 66
     7
 43
1.0
 76
     1
 77
     6
 78
     2
 67
     7
 79
     5
170
     0
171
     0
290
     0
174
     0
 93
        1
 44
50.0
173
     0
291
     1
 45
0.0
1001
ACAD
1000
AcDbSavedByObjectVersion
1070
     0
  0
VISUALSTYLE
  5
EA2
102
{ACAD_REACTORS
330
E92
102
}
330
E92
100
AcDbVisualStyle
  2
ColorChange
 70
    16
 71
     2
 72
     2
 73
     3
 90
        0
 40
-0.6
 41
-30.0
 62
     5
 63
     8
421
  8421504
 74
     1
 91
        4
 64
     7
 65
   257
 75
     1
175
     1
 42
1.0
 92
        8
 66
     8
424
  8421504
 43
1.0
 76
     1
 77
     6
 78
     2
 67
     7
 79
     5
170
     0
171
     0
290
     0
174
     0
 93
        1
 44
0.0
173
     0
291
     1
 45
0.0
1001
ACAD
1000
AcDbSavedByObjectVersion
1070
     0
  0
VISUALSTYLE
  5
E9B
102
{ACAD_REACTORS
330
E92
102
}
330
E92
100
AcDbVisualStyle
  2
Conceptual
 70
     9
 71
     3
 72
     2
 73
     0
 90
        0
 40
-0.6
 41
-30.0
 62
     5
 63
     7
421
 16777215
 74
     2
 91
        2
 64
     7
 65
   257
 75
     1
175
     1
 42
40.0
 92
        8
 66
     7
 43
1.0
 76
     1
 77
     6
 78
     2
 67
     7
 79
     3
170
     0
171
     0
290
     0
174
     0
 93
        1
 44
0.0
173
     0
291
     0
 45
0.0
1001
ACAD
1000
AcDbSavedByObjectVersion
1070
     0
  0
VISUALSTYLE
  5
E9D
102
{ACAD_REACTORS
330
E92
102
}
330
E92
100
AcDbVisualStyle
  2
Dim
 70
    11
 71
     2
 72
     2
 73
     0
 90
        0
 40
-0.6
 41
-30.0
 62
     5
 63
     7
421
 16777215
 74
     1
 91
        4
 64
     7
 65
   257
 75
     1
175
     1
 42
1.0
 92
        8
 66
     7
 43
1.0
 76
     1
 77
     6
 78
     2
 67
     7
 79
     5
170
     0
171
     0
290
     0
174
     0
 93
        1
 44
-50.0
173
     0
291
     1
 45
0.0
1001
ACAD
1000
AcDbSavedByObjectVersion
1070
     0
  0
VISUALSTYLE
  5
EA1
102
{ACAD_REACTORS
330
E92
102
}
330
E92
100
AcDbVisualStyle
  2
Facepattern
 70
    15
 71
     2
 72
     2
 73
     0
 90
        0
 40
-0.6
 41
-30.0
 62
     5
 63
     7
421
 16777215
 74
     1
 91
        4
 64
     7
 65
   257
 75
     1
175
     1
 42
1.0
 92
        8
 66
     7
 43
1.0
 76
     1
 77
     6
 78
     2
 67
     7
 79
     5
170
     0
171
     0
290
     0
174
     0
 93
        1
 44
0.0
173
     0
291
     1
 45
0.0
1001
ACAD
1000
AcDbSavedByObjectVersion
1070
     0
  0
VISUALSTYLE
  5
E93
102
{ACAD_REACTORS
330
E92
102
}
330
E92
100
AcDbVisualStyle
  2
Flat
 70
     0
 71
     2
 72
     1
 73
     1
 90
        2
 40
-0.6
 41
30.0
 62
     5
 63
     7
421
 16777215
 74
     0
 91
        4
 64
     7
 65
   257
 75
     1
175
     1
 42
1.0
 92
        8
 66
     7
 43
1.0
 76
     1
 77
     6
 78
     2
 67
     7
 79
     5
170
     0
171
     0
290
     0
174
     0
 93
       13
 44
0.0
173
     0
291
     1
 45
0.0
1001
ACAD
1000
AcDbSavedByObjectVersion
1070
     0
  0
VISUALSTYLE
  5
E94
102
{ACAD_REACTORS
330
E92
102
}
330
E92
100
AcDbVisualStyle
  2
FlatWithEdges
 70
     1
 71
     2
 72
     1
 73
     1
 90
        2
 40
-0.6
 41
30.0
 62
     5
 63
     7
421
 16777215
 74
     1
 91
        4
 64
     7
 65
   257
 75
     1
175
     1
 42
1.0
 92
        0
 66
   257
 43
1.0
 76
     1
 77
     6
 78
     2
 67
     7
 79
     5
170
     0
171
     0
290
     0
174
     0
 93
       13
 44
0.0
173
     0
291
     1
 45
0.0
1001
ACAD
1000
AcDbSavedByObjectVersion
1070
     0
  0
VISUALSTYLE
  5
E95
102
{ACAD_REACTORS
330
E92
102
}
330
E92
100
AcDbVisualStyle
  2
Gouraud
 70
     2
 71
     2
 72
     2
 73
     1
 90
        2
 40
-0.6
 41
30.0
 62
     5
 63
     7
421
 16777215
 74
     0
 91
        4
 64
     7
 65
   257
 75
     1
175
     1
 42
1.0
 92
        0
 66
     7
 43
1.0
 76
     1
 77
     6
 78
     2
 67
     7
 79
     5
170
     0
171
     0
290
     0
174
     0
 93
       13
 44
0.0
173
     0
291
     1
 45
0.0
1001
ACAD
1000
AcDbSavedByObjectVersion
1070
     0
  0
VISUALSTYLE
  5
E96
102
{ACAD_REACTORS
330
E92
102
}
330
E92
100
AcDbVisualStyle
  2
GouraudWithEdges
 70
     3
 71
     2
 72
     2
 73
     1
 90
        2
 40
-0.6
 41
30.0
 62
     5
 63
     7
421
 16777215
 74
     1
 91
        4
 64
     7
 65
   257
 75
     1
175
     1
 42
1.0
 92
        0
 66
   257
 43
1.0
 76
     1
 77
     6
 78
     2
 67
     7
 79
     5
170
     0
171
     0
290
     0
174
     0
 93
       13
 44
0.0
173
     0
291
     1
 45
0.0
1001
ACAD
1000
AcDbSavedByObjectVersion
1070
     0
  0
VISUALSTYLE
  5
EA0
102
{ACAD_REACTORS
330
E92
102
}
330
E92
100
AcDbVisualStyle
  2
Linepattern
 70
    14
 71
     2
 72
     2
 73
     0
 90
        0
 40
-0.6
 41
-30.0
 62
     5
 63
     7
421
 16777215
 74
     1
 91
        4
 64
     7
 65
   257
 75
     7
175
     7
 42
1.0
 92
        8
 66
     7
 43
1.0
 76
     1
 77
     6
 78
     2
 67
     7
 79
     5
170
     0
171
     0
290
     0
174
     0
 93
        1
 44
0.0
173
     0
291
     1
 45
0.0
1001
ACAD
1000
AcDbSavedByObjectVersion
1070
     0
  0
VISUALSTYLE
  5
E9C
102
{ACAD_REACTORS
330
E92
102
}
330
E92
100
AcDbVisualStyle
  2
Realistic
 70
     8
 71
     2
 72
     2
 73
     0
 90
        0
 40
-0.6
 41
-30.0
 62
     5
 63
     7
421
 16777215
 74
     1
 91
        0
 64
     7
 65
   257
 75
     1
175
     1
 42
1.0
 92
        8
 66
     8
424
  7895160
 43
1.0
 76
     1
 77
     6
 78
     2
 67
     7
 79
     5
170
     0
171
     0
290
     0
174
     0
 93
       13
 44
0.0
173
     0
291
     0
 45
0.0
1001
ACAD
1000
AcDbSavedByObjectVersion
1070
     0
  0
VISUALSTYLE
  5
E9F
102
{ACAD_REACTORS
330
E92
102
}
330
E92
100
AcDbVisualStyle
  2
Thicken
 70
    13
 71
     2
 72
     2
 73
     0
 90
        0
 40
-0.6
 41
-30.0
 62
     5
 63
     7
421
 16777215
 74
     1
 91
        4
 64
     7
 65
   257
 75
     1
175
     1
 42
1.0
 92
       12
 66
     7
 43
1.0
 76
     1
 77
     6
 78
     2
 67
     7
 79
     5
170
     0
171
     0
290
     0
174
     0
 93
        1
 44
0.0
173
     0
291
     1
 45
0.0
1001
ACAD
1000
AcDbSavedByObjectVersion
1070
     0
  0
DICTIONARYVAR
  5
EE9
102
{ACAD_REACTORS
330
2C
102
}
330
2C
100
DictionaryVariables
280
     0
  1
1:1
  0
DICTIONARYVAR
  5
EE8
102
{ACAD_REACTORS
330
2C
102
}
330
2C
100
DictionaryVariables
280
     0
  1
STANDARD
  0
DICTIONARYVAR
  5
EE7
102
{ACAD_REACTORS
330
2C
102
}
330
2C
100
DictionaryVariables
280
     0
  1
STANDARD
  0
DICTIONARYVAR
  5
2D
102
{ACAD_REACTORS
330
2C
102
}
330
2C
100
DictionaryVariables
280
     0
  1
0
  0
DICTIONARYVAR
  5
E77
102
{ACAD_REACTORS
330
2C
102
}
330
2C
100
DictionaryVariables
280
     0
  1
0
  0
DICTIONARYVAR
  5
18C
102
{ACAD_REACTORS
330
2C
102
}
330
2C
100
DictionaryVariables
280
     0
  1
96
  0
DICTIONARY
  5
E83
330
E82
100
AcDbDictionary
280
     1
281
     1
  3
ACAD_XREC_ROUNDTRIP
360
EEE
  3
BUMPTILE
360
E85
  3
DIFFUSETILE
360
E84
  3
OPACITYTILE
360
E88
  3
REFLECTIONTILE
360
E87
  3
REFRACTIONTILE
360
E89
  3
SPECULARTILE
360
E86
  0
DICTIONARY
  5
E7B
330
E7A
100
AcDbDictionary
280
     1
281
     1
  3
ACAD_XREC_ROUNDTRIP
360
EED
  3
BUMPTILE
360
E7D
  3
DIFFUSETILE
360
E7C
  3
OPACITYTILE
360
E80
  3
REFLECTIONTILE
360
E7F
  3
REFRACTIONTILE
360
E81
  3
SPECULARTILE
360
E7E
  0
DICTIONARY
  5
E8B
330
E8A
100
AcDbDictionary
280
     1
281
     1
  3
ACAD_XREC_ROUNDTRIP
360
EEF
  3
BUMPTILE
360
E8D
  3
DIFFUSETILE
360
E8C
  3
OPACITYTILE
360
E90
  3
REFLECTIONTILE
360
E8F
  3
REFRACTIONTILE
360
E91
  3
SPECULARTILE
360
E8E
  0
DICTIONARY
  5
EEA
330
EA5
100
AcDbDictionary
280
     1
281
     1
  3
ACAD_ROUNDTRIP_2008_TABLESTYLE_CELLSTYLEMAP
360
EEB
  3
ACAD_XREC_ROUNDTRIP
360
EF0
  0
XRECORD
  5
EEE
102
{ACAD_REACTORS
330
E83
102
}
330
E83
100
AcDbXrecord
280
     1
102
MATERIAL
148
0.0
149
0.0
149
0.0
 93
        0
 94
      127
282
     0
 72
     0
 77
     0
171
     0
175
     0
179
     0
273
     0
  0
XRECORD
  5
E85
102
{ACAD_REACTORS
330
E83
102
}
330
E83
100
AcDbXrecord
280
     1
270
     1
271
     1
  0
XRECORD
  5
E84
102
{ACAD_REACTORS
330
E83
102
}
330
E83
100
AcDbXrecord
280
     1
270
     1
271
     1
  0
XRECORD
  5
E88
102
{ACAD_REACTORS
330
E83
102
}
330
E83
100
AcDbXrecord
280
     1
270
     1
271
     1
  0
XRECORD
  5
E87
102
{ACAD_REACTORS
330
E83
102
}
330
E83
100
AcDbXrecord
280
     1
270
     1
271
     1
  0
XRECORD
  5
E89
102
{ACAD_REACTORS
330
E83
102
}
330
E83
100
AcDbXrecord
280
     1
270
     1
271
     1
  0
XRECORD
  5
E86
102
{ACAD_REACTORS
330
E83
102
}
330
E83
100
AcDbXrecord
280
     1
270
     1
271
     1
  0
XRECORD
  5
EED
102
{ACAD_REACTORS
330
E7B
102
}
330
E7B
100
AcDbXrecord
280
     1
102
MATERIAL
148
0.0
149
0.0
149
0.0
 93
        0
 94
      127
282
     0
 72
     0
 77
     0
171
     0
175
     0
179
     0
273
     0
  0
XRECORD
  5
E7D
102
{ACAD_REACTORS
330
E7B
102
}
330
E7B
100
AcDbXrecord
280
     1
270
     1
271
     1
  0
XRECORD
  5
E7C
102
{ACAD_REACTORS
330
E7B
102
}
330
E7B
100
AcDbXrecord
280
     1
270
     1
271
     1
  0
XRECORD
  5
E80
102
{ACAD_REACTORS
330
E7B
102
}
330
E7B
100
AcDbXrecord
280
     1
270
     1
271
     1
  0
XRECORD
  5
E7F
102
{ACAD_REACTORS
330
E7B
102
}
330
E7B
100
AcDbXrecord
280
     1
270
     1
271
     1
  0
XRECORD
  5
E81
102
{ACAD_REACTORS
330
E7B
102
}
330
E7B
100
AcDbXrecord
280
     1
270
     1
271
     1
  0
XRECORD
  5
E7E
102
{ACAD_REACTORS
330
E7B
102
}
330
E7B
100
AcDbXrecord
280
     1
270
     1
271
     1
  0
XRECORD
  5
EEF
102
{ACAD_REACTORS
330
E8B
102
}
330
E8B
100
AcDbXrecord
280
     1
102
MATERIAL
148
0.0
149
0.0
149
0.0
 93
        0
 94
      127
282
     0
 72
     0
 77
     0
171
     0
175
     0
179
     0
273
     0
  0
XRECORD
  5
E8D
102
{ACAD_REACTORS
330
E8B
102
}
330
E8B
100
AcDbXrecord
280
     1
270
     1
271
     1
  0
XRECORD
  5
E8C
102
{ACAD_REACTORS
330
E8B
102
}
330
E8B
100
AcDbXrecord
280
     1
270
     1
271
     1
  0
XRECORD
  5
E90
102
{ACAD_REACTORS
330
E8B
102
}
330
E8B
100
AcDbXrecord
280
     1
270
     1
271
     1
  0
XRECORD
  5
E8F
102
{ACAD_REACTORS
330
E8B
102
}
330
E8B
100
AcDbXrecord
280
     1
270
     1
271
     1
  0
XRECORD
  5
E91
102
{ACAD_REACTORS
330
E8B
102
}
330
E8B
100
AcDbXrecord
280
     1
270
     1
271
     1
  0
XRECORD
  5
E8E
102
{ACAD_REACTORS
330
E8B
102
}
330
E8B
100
AcDbXrecord
280
     1
270
     1
271
     1
  0
CELLSTYLEMAP
  5
EEB
102
{ACAD_REACTORS
330
EEA
102
}
330
EEA
100
AcDbCellStyleMap
 90
        3
300
CELLSTYLE
  1
TABLEFORMAT_BEGIN
 90
        5
170
     1
 91
        0
 92
    32768
 62
   257
 93
        1
300
CONTENTFORMAT
  1
CONTENTFORMAT_BEGIN
 90
        0
 91
        0
 92
      512
 93
        0
300

 40
0.0
140
1.0
 94
        5
 62
     0
340
F
144
0.25
309
CONTENTFORMAT_END
171
     0
 94
        0
309
TABLEFORMAT_END
  1
CELLSTYLE_BEGIN
 90
        1
 91
        1
300
_TITLE
309
CELLSTYLE_END
300
CELLSTYLE
  1
TABLEFORMAT_BEGIN
 90
        5
170
     1
 91
        0
 92
        0
 62
   257
 93
        1
300
CONTENTFORMAT
  1
CONTENTFORMAT_BEGIN
 90
        0
 91
        0
 92
      512
 93
        0
300

 40
0.0
140
1.0
 94
        5
 62
     0
340
F
144
0.18
309
CONTENTFORMAT_END
171
     0
 94
        0
309
TABLEFORMAT_END
  1
CELLSTYLE_BEGIN
 90
        2
 91
        1
300
_HEADER
309
CELLSTYLE_END
300
CELLSTYLE
  1
TABLEFORMAT_BEGIN
 90
        5
170
     1
 91
        0
 92
        0
 62
   257
 93
        1
300
CONTENTFORMAT
  1
CONTENTFORMAT_BEGIN
 90
        0
 91
        0
 92
      512
 93
        0
300

 40
0.0
140
1.0
 94
        2
 62
     0
340
F
144
0.18
309
CONTENTFORMAT_END
171
     0
 94
        0
309
TABLEFORMAT_END
  1
CELLSTYLE_BEGIN
 90
        3
 91
        2
300
_DATA
309
CELLSTYLE_END
  0
XRECORD
  5
EF0
102
{ACAD_REACTORS
330
EEA
102
}
330
EEA
100
AcDbXrecord
280
     1
102
ACAD_ROUNDTRIP_PRE2007_TABLESTYLE
 90
      512
 91
        0
  1

 92
      512
 93
        0
  2

 94
      512
 95
        0
  3

  0
ENDSEC
  0
EOF
