  0
SECTION
  2
HEADER
  9
$ACADVER
  1
AC1015
  9
$ACADMAINTVER
 70
    20
  9
$DWGCODEPAGE
  3
ANSI_1252
  9
$INSBASE
 10
0.0
 20
0.0
 30
0.0
  9
$EXTMIN
 10
0.1042494754821988
 20
0.3013358716206689
 30
0.0
  9
$EXTMAX
 10
16.5642494754822
 20
10.76133587162067
 30
0.0
  9
$LIMMIN
 10
0.0
 20
0.0
  9
$LIMMAX
 10
17.0
 20
11.0
  9
$ORTHOMODE
 70
     0
  9
$REGENMODE
 70
     1
  9
$FILLMODE
 70
     1
  9
$QTEXTMODE
 70
     0
  9
$MIRRTEXT
 70
     1
  9
$LTSCALE
 40
0.25
  9
$ATTMODE
 70
     1
  9
$TEXTSIZE
 40
0.09375
  9
$TRACEWID
 40
0.05
  9
$TEXTSTYLE
  7
ROMANS
  9
$CLAYER
  8
DIM
  9
$CELTYPE
  6
ByLayer
  9
$CECOLOR
 62
   256
  9
$CELTSCALE
 40
1.0
  9
$DISPSILH
 70
     0
  9
$DIMSCALE
 40
1.0
  9
$DIMASZ
 40
0.15
  9
$DIMEXO
 40
0.0625
  9
$DIMDLI
 40
0.38
  9
$DIMRND
 40
0.0
  9
$DIMDLE
 40
0.0
  9
$DIMEXE
 40
0.0625
  9
$DIMTP
 40
0.0
  9
$DIMTM
 40
0.0
  9
$DIMTXT
 40
0.09
  9
$DIMCEN
 40
0.09
  9
$DIMTSZ
 40
0.0
  9
$DIMTOL
 70
     0
  9
$DIMLIM
 70
     0
  9
$DIMTIH
 70
     1
  9
$DIMTOH
 70
     1
  9
$DIMSE1
 70
     0
  9
$DIMSE2
 70
     0
  9
$DIMTAD
 70
     0
  9
$DIMZIN
 70
     0
  9
$DIMBLK
  1

  9
$DIMASO
 70
     0
  9
$DIMSHO
 70
     1
  9
$DIMPOST
  1

  9
$DIMAPOST
  1

  9
$DIMALT
 70
     0
  9
$DIMALTD
 70
     2
  9
$DIMALTF
 40
25.4
  9
$DIMLFAC
 40
1.0
  9
$DIMTOFL
 70
     0
  9
$DIMTVP
 40
0.0
  9
$DIMTIX
 70
     0
  9
$DIMSOXD
 70
     0
  9
$DIMSAH
 70
     0
  9
$DIMBLK1
  1

  9
$DIMBLK2
  1

  9
$DIMSTYLE
  2
Standard
  9
$DIMCLRD
 70
     1
  9
$DIMCLRE
 70
     1
  9
$DIMCLRT
 70
     7
  9
$DIMTFAC
 40
1.0
  9
$DIMGAP
 40
0.09
  9
$DIMJUST
 70
     0
  9
$DIMSD1
 70
     0
  9
$DIMSD2
 70
     0
  9
$DIMTOLJ
 70
     1
  9
$DIMTZIN
 70
     0
  9
$DIMALTZ
 70
     0
  9
$DIMALTTZ
 70
     0
  9
$DIMUPT
 70
     0
  9
$DIMDEC
 70
     4
  9
$DIMTDEC
 70
     4
  9
$DIMALTU
 70
     2
  9
$DIMALTTD
 70
     2
  9
$DIMTXSTY
  7
STANDARD
  9
$DIMAUNIT
 70
     0
  9
$DIMADEC
 70
     0
  9
$DIMALTRND
 40
0.0
  9
$DIMAZIN
 70
     0
  9
$DIMDSEP
 70
    46
  9
$DIMATFIT
 70
     3
  9
$DIMFRAC
 70
     0
  9
$DIMLDRBLK
  1

  9
$DIMLUNIT
 70
     2
  9
$DIMLWD
 70
    -2
  9
$DIMLWE
 70
    -2
  9
$DIMTMOVE
 70
     0
  9
$LUNITS
 70
     2
  9
$LUPREC
 70
     4
  9
$SKETCHINC
 40
0.1
  9
$FILLETRAD
 40
0.0
  9
$AUNITS
 70
     0
  9
$AUPREC
 70
     0
  9
$MENU
  1
acad
  9
$ELEVATION
 40
0.0
  9
$PELEVATION
 40
0.0
  9
$THICKNESS
 40
0.0
  9
$LIMCHECK
 70
     0
  9
$CHAMFERA
 40
0.0
  9
$CHAMFERB
 40
0.0
  9
$CHAMFERC
 40
0.0
  9
$CHAMFERD
 40
0.0
  9
$SKPOLY
 70
     0
  9
$TDCREATE
 40
2449766.541135301
  9
$TDUCREATE
 40
2449766.749468635
  9
$TDUPDATE
 40
2455028.607016065
  9
$TDUUPDATE
 40
2455028.815349398
  9
$TDINDWG
 40
2.3752375000
  9
$TDUSRTIMER
 40
2.3752375000
  9
$USRTIMER
 70
     1
  9
$ANGBASE
 50
0.0
  9
$ANGDIR
 70
     0
  9
$PDMODE
 70
     0
  9
$PDSIZE
 40
0.0
  9
$PLINEWID
 40
0.0
  9
$SPLFRAME
 70
     0
  9
$SPLINETYPE
 70
     6
  9
$SPLINESEGS
 70
     8
  9
$HANDSEED
  5
4C0D
  9
$SURFTAB1
 70
     6
  9
$SURFTAB2
 70
     6
  9
$SURFTYPE
 70
     6
  9
$SURFU
 70
     6
  9
$SURFV
 70
     6
  9
$UCSBASE
  2

  9
$UCSNAME
  2

  9
$UCSORG
 10
0.0
 20
0.0
 30
0.0
  9
$UCSXDIR
 10
1.0
 20
0.0
 30
0.0
  9
$UCSYDIR
 10
0.0
 20
1.0
 30
0.0
  9
$UCSORTHOREF
  2

  9
$UCSORTHOVIEW
 70
     0
  9
$UCSORGTOP
 10
0.0
 20
0.0
 30
0.0
  9
$UCSORGBOTTOM
 10
0.0
 20
0.0
 30
0.0
  9
$UCSORGLEFT
 10
0.0
 20
0.0
 30
0.0
  9
$UCSORGRIGHT
 10
0.0
 20
0.0
 30
0.0
  9
$UCSORGFRONT
 10
0.0
 20
0.0
 30
0.0
  9
$UCSORGBACK
 10
0.0
 20
0.0
 30
0.0
  9
$PUCSBASE
  2

  9
$PUCSNAME
  2

  9
$PUCSORG
 10
0.0
 20
0.0
 30
0.0
  9
$PUCSXDIR
 10
1.0
 20
0.0
 30
0.0
  9
$PUCSYDIR
 10
0.0
 20
1.0
 30
0.0
  9
$PUCSORTHOREF
  2

  9
$PUCSORTHOVIEW
 70
     0
  9
$PUCSORGTOP
 10
0.0
 20
0.0
 30
0.0
  9
$PUCSORGBOTTOM
 10
0.0
 20
0.0
 30
0.0
  9
$PUCSORGLEFT
 10
0.0
 20
0.0
 30
0.0
  9
$PUCSORGRIGHT
 10
0.0
 20
0.0
 30
0.0
  9
$PUCSORGFRONT
 10
0.0
 20
0.0
 30
0.0
  9
$PUCSORGBACK
 10
0.0
 20
0.0
 30
0.0
  9
$USERI1
 70
     0
  9
$USERI2
 70
     0
  9
$USERI3
 70
     0
  9
$USERI4
 70
     0
  9
$USERI5
 70
     0
  9
$USERR1
 40
0.0
  9
$USERR2
 40
0.0
  9
$USERR3
 40
0.0
  9
$USERR4
 40
0.0
  9
$USERR5
 40
0.0
  9
$WORLDVIEW
 70
     1
  9
$SHADEDGE
 70
     3
  9
$SHADEDIF
 70
    70
  9
$TILEMODE
 70
     1
  9
$MAXACTVP
 70
    16
  9
$PINSBASE
 10
0.0
 20
0.0
 30
0.0
  9
$PLIMCHECK
 70
     0
  9
$PEXTMIN
 10
1.000000000000000E+20
 20
1.000000000000000E+20
 30
1.000000000000000E+20
  9
$PEXTMAX
 10
-1.000000000000000E+20
 20
-1.000000000000000E+20
 30
-1.000000000000000E+20
  9
$PLIMMIN
 10
0.0
 20
0.0
  9
$PLIMMAX
 10
12.0
 20
9.0
  9
$UNITMODE
 70
     0
  9
$VISRETAIN
 70
     0
  9
$PLINEGEN
 70
     0
  9
$PSLTSCALE
 70
     1
  9
$TREEDEPTH
 70
  3020
  9
$CMLSTYLE
  2
Standard
  9
$CMLJUST
 70
     0
  9
$CMLSCALE
 40
1.0
  9
$PROXYGRAPHICS
 70
     1
  9
$MEASUREMENT
 70
     0
  9
$CELWEIGHT
370
    -1
  9
$ENDCAPS
280
     0
  9
$JOINSTYLE
280
     0
  9
$LWDISPLAY
290
     0
  9
$INSUNITS
 70
     0
  9
$HYPERLINKBASE
  1

  9
$STYLESHEET
  1
standard.ctb
  9
$XEDIT
290
     1
  9
$CEPSNTYPE
380
     0
  9
$PSTYLEMODE
290
     1
  9
$FINGERPRINTGUID
  2
{15A91E55-5219-469D-BD62-5FAE47C117F2}
  9
$VERSIONGUID
  2
{6A2E6AEC-0087-4D67-ADEC-B2DC6E1F6A87}
  9
$EXTNAMES
290
     1
  9
$PSVPSCALE
 40
0.0
  9
$OLESTARTUP
290
     0
  0
ENDSEC
  0
SECTION
  2
CLASSES
  0
CLASS
  1
ACDBDICTIONARYWDFLT
  2
AcDbDictionaryWithDefault
  3
ObjectDBX Classes
 90
        0
280
     0
281
     0
  0
CLASS
  1
ACDBPLACEHOLDER
  2
AcDbPlaceHolder
  3
ObjectDBX Classes
 90
        0
280
     0
281
     0
  0
CLASS
  1
LAYOUT
  2
AcDbLayout
  3
ObjectDBX Classes
 90
        0
280
     0
281
     0
  0
CLASS
  1
DICTIONARYVAR
  2
AcDbDictionaryVar
  3
ObjectDBX Classes
 90
        0
280
     0
281
     0
  0
CLASS
  1
DIMASSOC
  2
AcDbDimAssoc
  3
"AcDbDimAssoc|Product Desc:     AcDim ARX App For Dimension|Company:          Autodesk, Inc.|WEB Address:      www.autodesk.com"
 90
    32768
280
     0
281
     0
  0
CLASS
  1
TABLESTYLE
  2
AcDbTableStyle
  3
ObjectDBX Classes
 90
     2047
280
     0
281
     0
  0
CLASS
  1
ACME_DOCUMENT
  2
AcMeDbDoc
  3
AcMeServices
 90
        0
280
     0
281
     0
  0
CLASS
  1
AMGSETTINGSOBJ
  2
AmgSettingsObj
  3
"AcadM|Product Description: AutoCAD Mechanical 2000|Company: Autodesk"
 90
        0
280
     0
281
     0
  0
CLASS
  1
ACMESCOPE
  2
AcMeScope
  3
AcMeServices
 90
        0
280
     0
281
     0
  0
CLASS
  1
ACMECOMMANDHISTORY
  2
AcMeCommandHistory
  3
AcMeServices
 90
        0
280
     0
281
     0
  0
CLASS
  1
ACIMSYSVARMAN
  2
AcImSysVarManager
  3
AcMeServices
 90
        0
280
     0
281
     0
  0
CLASS
  1
ACIMINTSYSVAR
  2
AcImIntSysVar
  3
AcMeServices
 90
        0
280
     0
281
     0
  0
CLASS
  1
ACMEDRAWINGMAN
  2
AcMeDrawingMan
  3
AcMeServices
 90
        0
280
     0
281
     0
  0
CLASS
  1
ACMEVIEW
  2
AcMeView
  3
AcMeServices
 90
        0
280
     0
281
     0
  0
CLASS
  1
ACDBENTITYCACHE
  2
AcMeEntityCache
  3
AcMeServices
 90
        0
280
     0
281
     0
  0
CLASS
  1
GSMANAGER
  2
AcMeGSManager
  3
AcMeServices
 90
        0
280
     0
281
     0
  0
CLASS
  1
AMDTINTERNALREACTOR
  2
AmdtInternalReactor
  3
AcMeServices
 90
        0
280
     0
281
     0
  0
CLASS
  1
ACMESTATEMGR
  2
AcMeStateMgr
  3
AcMeServices
 90
        0
280
     0
281
     0
  0
CLASS
  1
ACGREFMASTER
  2
AcGrefMaster
  3
AcAttribServices
 90
        0
280
     0
281
     0
  0
CLASS
  1
AM_DRAWING_MGR
  2
AcDmDwgMgr
  3
AcMechDwgViewMgmt
 90
        0
280
     0
281
     0
  0
CLASS
  1
AM_DWG_DOCUMENT
  2
AcDmDwgDocument
  3
AcMechDwgViewMgmt
 90
        0
280
     0
281
     0
  0
CLASS
  1
AM_DWG_SHEET
  2
AcDmSheet
  3
AcMechDwgViewMgmt
 90
        0
280
     0
281
     0
  0
CLASS
  1
AM_VIEWDIMPARMAP
  2
AcDmViewDimParMap
  3
AcMechDwgViewMgmt
 90
        0
280
     0
281
     0
  0
CLASS
  1
ACIMREALSYSVAR
  2
AcImRealSysVar
  3
AcMeServices
 90
        0
280
     0
281
     0
  0
CLASS
  1
AM_DWGMGR_NAME
  2
AcDmDwgMgrName
  3
AcMechDwgViewMgmt
 90
        0
280
     0
281
     0
  0
CLASS
  1
ACME_DATABASE
  2
AcMeDbDatabase
  3
AcMeServices
 90
        0
280
     0
281
     0
  0
CLASS
  1
ACRFINSADJUSTERMGR
  2
AcRfInsAdjusterMgr
  3
AcMeServices
 90
        0
280
     0
281
     0
  0
CLASS
  1
ACGREFACADMASTER
  2
AcGrefacadMaster
  3
AcGrefServices
 90
        0
280
     0
281
     0
  0
CLASS
  1
AMDTMENUSTATEMGR
  2
AmdtMenuStateMgr
  3
McadcomServices
 90
        0
280
     0
281
     0
  0
CLASS
  1
AMDTMCOMMENUSTATE
  2
AmdtMcomMenuState
  3
McadcomServices
 90
        0
280
     0
281
     0
  0
CLASS
  1
AMIMASTER
  2
AmiMaster
  3
AmiServices
 90
        0
280
     0
281
     0
  0
CLASS
  1
MAPIAMMOUDLE
  2
MApiAmModule
  3
MApiAmServices
 90
        0
280
     0
281
     0
  0
CLASS
  1
ACIMSTRSYSVAR
  2
AcImStrSysVar
  3
AcMeServices
 90
        0
280
     0
281
     0
  0
CLASS
  1
AMDTADMENUSTATE
  2
AmdtAdMenuState
  3
DesignerServices
 90
        0
280
     0
281
     0
  0
CLASS
  1
ADAPPL
  2
AcAdAppl
  3
DesignerServices
 90
        0
280
     0
281
     0
  0
CLASS
  1
DEPMGR
  2
AcAdDepMgr
  3
DesignerServices
 90
        0
280
     0
281
     0
  0
CLASS
  1
PARAMMGR
  2
AcAdParamMgr
  3
DesignerServices
 90
        0
280
     0
281
     0
  0
CLASS
  1
PARAMSCOPE
  2
AcAdParamScope
  3
DesignerServices
 90
        0
280
     0
281
     0
  0
CLASS
  1
NAMEDAPPL
  2
AcAdNamedAppl
  3
DesignerServices
 90
        0
280
     0
281
     0
  0
CLASS
  1
AMDTDMMENUSTATE
  2
AmdtDmMenuState
  3
AcMechDwgViewMgmt
 90
        0
280
     0
281
     0
  0
CLASS
  1
AMDTAMMENUSTATE
  2
AmdtAmMenuState
  3
DesignerAssemblies
 90
        0
280
     0
281
     0
  0
CLASS
  1
ACAMPROJECT
  2
AcAmProject
  3
DesignerAssemblies
 90
        0
280
     0
281
     0
  0
CLASS
  1
ACAMGRCOMPDEF
  2
AcAmGrCompDef
  3
DesignerAssemblies
 90
        0
280
     0
281
     0
  0
CLASS
  1
ACCMCONTEXT
  2
AcCmContext
  3
DesignerAssemblies
 90
        0
280
     0
281
     0
  0
CLASS
  1
ACAMCOMPDEF
  2
AcAmCompDef
  3
DesignerAssemblies
 90
        0
280
     0
281
     0
  0
CLASS
  1
ACAMCOMPDEFMGR
  2
AcAmCompDefMgr
  3
DesignerAssemblies
 90
        0
280
     0
281
     0
  0
CLASS
  1
AMCONTEXTMGR
  2
AcAmContextMgr
  3
DesignerAssemblies
 90
        0
280
     0
281
     0
  0
CLASS
  1
ACAMCONTEXTMODELER
  2
AcAmContextModeler
  3
DesignerAssemblies
 90
        0
280
     0
281
     0
  0
CLASS
  1
ACMDATADICTIONARY
  2
AcmDataDictionary
  3
"AcmSymBB|Product Description: AutoCAD Mechanical 2004 DX|Company: Autodesk"
 90
        0
280
     0
281
     0
  0
CLASS
  1
CATALOGSTATE
  2
AcAmCatalogState
  3
DesignerAssemblies
 90
        0
280
     0
281
     0
  0
CLASS
  1
ACAMGRCOMPDEFSET
  2
AcAmGrCompDefSet
  3
DesignerAssemblies
 90
        0
280
     0
281
     0
  0
CLASS
  1
AMDTBROWSERDBTAB
  2
AmdtBrowserDbTab
  3
McadcomServices
 90
        0
280
     0
281
     0
  0
CLASS
  1
CBROWSERAPPOBJECT
  2
CBrowserAppObject
  3
McadcomServices
 90
        0
280
     0
281
     0
  0
CLASS
  1
DM_PLACEHOLDER
  2
AcDmSelsetPlaceholder
  3
AcMechDwgViewMgmt
 90
        0
280
     0
281
     0
  0
CLASS
  1
ACMSTANDARDANSI
  2
AcmStandardANSI
  3
"Amdt_StdImp|Product Description: AutoCAD Mechanical 2004 DX|Company: Autodesk"
 90
        0
280
     0
281
     0
  0
CLASS
  1
AMGOBJPROPCFG
  2
AmgObjPropCfg
  3
"AmgLay|Product Description: AutoCAD Mechanical 2000|Company: Autodesk"
 90
        1
280
     0
281
     0
  0
CLASS
  1
ACMSURFSTANDARDANSI
  2
AcmSurfTextStdANSI
  3
"Amdt_StdImp|Product Description: AutoCAD Mechanical 2004 DX|Company: Autodesk"
 90
        0
280
     0
281
     0
  0
CLASS
  1
ACMFCFSTANDARDANSI
  2
AcmFCFStdANSI
  3
"Amdt_StdImp|Product Description: AutoCAD Mechanical 2004 DX|Company: Autodesk"
 90
        0
280
     0
281
     0
  0
CLASS
  1
ACMWELDSTANDARDANSI
  2
AcmWeldingStdANSI
  3
"Amdt_StdImp|Product Description: AutoCAD Mechanical 2004 DX|Company: Autodesk"
 90
        0
280
     0
281
     0
  0
CLASS
  1
ACMIDSTANDARDANSI
  2
AcmIdStdANSI
  3
"Amdt_StdImp|Product Description: AutoCAD Mechanical 2004 DX|Company: Autodesk"
 90
        0
280
     0
281
     0
  0
CLASS
  1
ACMDATUMSTANDARDANSI
  2
AcmDatumStdANSI
  3
"Amdt_StdImp|Product Description: AutoCAD Mechanical 2004 DX|Company: Autodesk"
 90
        0
280
     0
281
     0
  0
CLASS
  1
ACMBOMSTANDARDANSI
  2
AcmBOMStdANSI
  3
"Amdt_StdImp|Product Description: AutoCAD Mechanical 2004 DX|Company: Autodesk"
 90
        0
280
     0
281
     0
  0
CLASS
  1
ACMDETAILSTANDARDANSI
  2
AmdtDetailSymStdANSI
  3
"Amdt_StdImp|Product Description: AutoCAD Mechanical 2004 DX|Company: Autodesk"
 90
        0
280
     0
281
     0
  0
CLASS
  1
ACMSECTIONSTANDARDANSI
  2
AmdtSectionSymStdANSI
  3
"Amdt_StdImp|Product Description: AutoCAD Mechanical 2004 DX|Company: Autodesk"
 90
        0
280
     0
281
     0
  0
CLASS
  1
ACMCENTERLINESTANDARDANSI
  2
AmdtCenterLineStdANSI
  3
"Amdt_StdImp|Product Description: AutoCAD Mechanical 2004 DX|Company: Autodesk"
 90
        0
280
     0
281
     0
  0
CLASS
  1
ACMTHREADLINESTANDARDANSI
  2
AmdtThreadLineStdANSI
  3
"Amdt_StdImp|Product Description: AutoCAD Mechanical 2004 DX|Company: Autodesk"
 90
        0
280
     0
281
     0
  0
CLASS
  1
ACMNOTESTANDARDANSI
  2
AmdtNoteStdANSI
  3
"Amdt_StdImp|Product Description: AutoCAD Mechanical 2004 DX|Company: Autodesk"
 90
        0
280
     0
281
     0
  0
CLASS
  1
AMDTNOTETEMPLATEDB
  2
AmdtNoteTemplateDB
  3
AMDT_STDIMP_MODULE_NAME
 90
        0
280
     0
281
     0
  0
CLASS
  1
ACAMGLAYSTD
  2
AcAmgLayStd
  3
"AcAmgLayStd|Product Description: AutoCAD Mechanical 2000|Company: Autodesk"
 90
        0
280
     0
281
     0
  0
CLASS
  1
ACAMGDIMSTD
  2
AcAmgDimStd
  3
"AcAmgDimStd|Product Description: AutoCAD Mechanical 2000|Company: Autodesk"
 90
        0
280
     0
281
     0
  0
CLASS
  1
ACAMGHOLECHARTSTDANSI
  2
AcAmgHoleChartStdANSI
  3
ACMSYMBB_MODULE_NAME
 90
        0
280
     0
281
     0
  0
CLASS
  1
ACAMGTITLESTD
  2
AcAmgTitleStd
  3
"TITLEAPP"
 90
        0
280
     0
281
     0
  0
CLASS
  1
ACAMGFILTERDAT
  2
AcAmgFilterDat
  3
"AcadM|Product Description: AutoCAD Mechanical 2000|Company: Autodesk"
 90
        0
280
     0
281
     0
  0
ENDSEC
  0
SECTION
  2
TABLES
  0
TABLE
  2
VPORT
  5
8
330
0
100
AcDbSymbolTable
 70
     3
  0
VPORT
  5
4C07
330
8
100
AcDbSymbolTableRecord
100
AcDbViewportTableRecord
  2
*Active
 70
     0
 10
0.0
 20
0.0
 11
1.0
 21
1.0
 12
8.499999999999998
 22
6.290741664511202
 13
0.0
 23
0.0
 14
0.0625
 24
0.0625
 15
0.5
 25
0.5
 16
0.0
 26
0.0
 36
1.0
 17
0.0
 27
0.0
 37
0.0
 40
12.7221422571389
 41
1.758308157099697
 42
50.0
 43
0.0
 44
0.0
 50
0.0
 51
0.0
 71
     0
 72
   500
 73
     1
 74
     0
 75
     0
 76
     0
 77
     0
 78
     0
281
     0
 65
     1
110
0.0
120
0.0
130
0.0
111
1.0
121
0.0
131
0.0
112
0.0
122
1.0
132
0.0
 79
     0
146
0.0
  0
ENDTAB
  0
TABLE
  2
LTYPE
  5
5
330
0
100
AcDbSymbolTable
 70
    16
  0
LTYPE
  5
13
330
5
100
AcDbSymbolTableRecord
100
AcDbLinetypeTableRecord
  2
ByBlock
 70
     0
  3

 72
    65
 73
     0
 40
0.0
  0
LTYPE
  5
14
330
5
100
AcDbSymbolTableRecord
100
AcDbLinetypeTableRecord
  2
ByLayer
 70
     0
  3

 72
    65
 73
     0
 40
0.0
  0
LTYPE
  5
15
330
5
100
AcDbSymbolTableRecord
100
AcDbLinetypeTableRecord
  2
CONTINUOUS
 70
     0
  3
Solid line
 72
    65
 73
     0
 40
0.0
  0
LTYPE
  5
2C
330
5
100
AcDbSymbolTableRecord
100
AcDbLinetypeTableRecord
  2
CENTER
 70
     0
  3
____ _ ____ _ ____ _ ____ _ ____ _ ____ _ ____ 
 72
    65
 73
     4
 40
2.0
 49
1.25
 74
     0
 49
-0.25
 74
     0
 49
0.25
 74
     0
 49
-0.25
 74
     0
  0
LTYPE
  5
430
330
5
100
AcDbSymbolTableRecord
100
AcDbLinetypeTableRecord
  2
HIDDEN
 70
     0
  3
_ _ _ _ _ _ _ _ _ _ _ _ _ _ _ _ _ _ _ _ _ _ _
 72
    65
 73
     2
 40
0.375
 49
0.25
 74
     0
 49
-0.125
 74
     0
  0
LTYPE
  5
4B85
330
5
100
AcDbSymbolTableRecord
100
AcDbLinetypeTableRecord
  2
PHANTOM2
 70
     0
  3
Phantom (.5x) ___ _ _ ___ _ _ ___ _ _ ___ _ _
 72
    65
 73
     6
 40
1.25
 49
0.625
 74
     0
 49
-0.125
 74
     0
 49
0.125
 74
     0
 49
-0.125
 74
     0
 49
0.125
 74
     0
 49
-0.125
 74
     0
  0
LTYPE
  5
4BB9
330
5
100
AcDbSymbolTableRecord
100
AcDbLinetypeTableRecord
  2
AM_ISO02W050
 70
     0
  3
__ __ __ __ __ __ __ __ __ __ __ __ __ __ __
 72
    65
 73
     2
 40
7.5
 49
6.0
 74
     0
 49
-1.5
 74
     0
  0
LTYPE
  5
4BBA
330
5
100
AcDbSymbolTableRecord
100
AcDbLinetypeTableRecord
  2
AM_ISO08W050
 70
     0
  3
____ . ____ . ____ . ____ . ____ . ____ . ____
 72
    65
 73
     4
 40
18.0
 49
12.0
 74
     0
 49
-1.5
 74
     0
 49
3.0
 74
     0
 49
-1.5
 74
     0
  0
LTYPE
  5
4BBB
330
5
100
AcDbSymbolTableRecord
100
AcDbLinetypeTableRecord
  2
AM_ISO09W050
 70
     0
  3
_____ . . _____ . . _____ . . ____ .. ____
 72
    65
 73
     6
 40
22.5
 49
12.0
 74
     0
 49
-1.5
 74
     0
 49
3.0
 74
     0
 49
-1.5
 74
     0
 49
3.0
 74
     0
 49
-1.5
 74
     0
  0
LTYPE
  5
4BBC
330
5
100
AcDbSymbolTableRecord
100
AcDbLinetypeTableRecord
  2
Amconstr
 70
     0
  3
_______________________
 72
    65
 73
     2
 40
9999.0
 49
9999.0
 74
     0
 49
0.0
 74
     0
  0
LTYPE
  5
4BBD
330
5
100
AcDbSymbolTableRecord
100
AcDbLinetypeTableRecord
  2
AM_ISO08W050x2
 70
     0
  3
__ . __ . __ . __ . __ . __
 72
    65
 73
     4
 40
9.0
 49
6.0
 74
     0
 49
-0.75
 74
     0
 49
1.5
 74
     0
 49
-0.75
 74
     0
  0
LTYPE
  5
4BBE
330
5
100
AcDbSymbolTableRecord
100
AcDbLinetypeTableRecord
  2
AM_ISO02W050x2
 70
     0
  3
 _ _ _ _ _ _ _ _ _ _ _ _
 72
    65
 73
     2
 40
3.75
 49
3.0
 74
     0
 49
-0.75
 74
     0
  0
LTYPE
  5
4BC1
330
5
100
AcDbSymbolTableRecord
100
AcDbLinetypeTableRecord
  2
Amzigzag
 70
     0
  3
/\/-/\/-/\/-/\/-/\/-/\/
 72
    65
 73
     2
 40
11.0001
 49
0.0001
 74
     4
 75
   136
340
4BC0
 46
0.04
 50
0.0
 44
0.0
 45
0.0
 49
-11.0
 74
     0
  0
LTYPE
  5
4BC2
330
5
100
AcDbSymbolTableRecord
100
AcDbLinetypeTableRecord
  2
CENTER2
 70
     0
  3
Center (.5x) ___ _ ___ _ ___ _ ___ _ ___ _ ___
 72
    65
 73
     4
 40
1.125
 49
0.75
 74
     0
 49
-0.125
 74
     0
 49
0.125
 74
     0
 49
-0.125
 74
     0
  0
LTYPE
  5
4BC3
330
5
100
AcDbSymbolTableRecord
100
AcDbLinetypeTableRecord
  2
HIDDEN2
 70
     0
  3
Hidden (.5x) _ _ _ _ _ _ _ _ _ _ _ _ _ _ _ _ _
 72
    65
 73
     2
 40
0.1875
 49
0.125
 74
     0
 49
-0.0625
 74
     0
  0
LTYPE
  5
4BC4
330
5
100
AcDbSymbolTableRecord
100
AcDbLinetypeTableRecord
  2
Amzigzag2
 70
     0
  3
/\/-/\/-/\/-/\/-/\/-/\/
 72
    65
 73
     2
 40
0.4401
 49
0.0001
 74
     4
 75
   136
340
4BC0
 46
0.0016
 50
0.0
 44
0.0
 45
0.0
 49
-0.4400000000000001
 74
     0
  0
LTYPE
  5
4BD2
330
5
100
AcDbSymbolTableRecord
100
AcDbLinetypeTableRecord
  2
ACANSTGB
 70
     0
  3
__ . . __ . .
 72
    65
 73
     6
 40
0.35433070866
 49
0.15748031496
 74
     0
 49
-0.03937007874
 74
     0
 49
0.03937007874
 74
     0
 49
-0.03937007874
 74
     0
 49
0.03937007874
 74
     0
 49
-0.03937007874
 74
     0
  0
LTYPE
  5
4BD3
330
5
100
AcDbSymbolTableRecord
100
AcDbLinetypeTableRecord
  2
ACANSTGL
 70
     0
  3
_ _ _ _ _
 72
    65
 73
     2
 40
0.11811023622
 49
0.07874015748
 74
     0
 49
-0.03937007874
 74
     0
  0
ENDTAB
  0
TABLE
  2
LAYER
  5
2
330
0
100
AcDbSymbolTable
 70
     9
  0
LAYER
  5
10
330
2
100
AcDbSymbolTableRecord
100
AcDbLayerTableRecord
  2
0
 70
     0
 62
     7
  6
CONTINUOUS
370
    -3
390
F
  0
LAYER
  5
30
330
2
100
AcDbSymbolTableRecord
100
AcDbLayerTableRecord
  2
TEXT
 70
     0
 62
     7
  6
CONTINUOUS
370
    -3
390
F
  0
LAYER
  5
31
330
2
100
AcDbSymbolTableRecord
100
AcDbLayerTableRecord
  2
DEFPOINTS
 70
     0
 62
     7
  6
CONTINUOUS
290
     0
370
    -3
390
F
  0
LAYER
  5
32
330
2
100
AcDbSymbolTableRecord
100
AcDbLayerTableRecord
  2
DIM
 70
     0
 62
     1
  6
CONTINUOUS
370
    -3
390
F
  0
LAYER
  5
33
330
2
100
AcDbSymbolTableRecord
100
AcDbLayerTableRecord
  2
CENTER
 70
     0
 62
     3
  6
CENTER
370
    -3
390
F
  0
LAYER
  5
34
330
2
100
AcDbSymbolTableRecord
100
AcDbLayerTableRecord
  2
OBJ
 70
     0
 62
     7
  6
CONTINUOUS
370
    -3
390
F
  0
LAYER
  5
8BE
330
2
100
AcDbSymbolTableRecord
100
AcDbLayerTableRecord
  2
BORDER
 70
     0
 62
     7
  6
CONTINUOUS
370
    -3
390
F
  0
LAYER
  5
8BF
330
2
100
AcDbSymbolTableRecord
100
AcDbLayerTableRecord
  2
FORM
 70
     0
 62
     7
  6
CONTINUOUS
370
    -3
390
F
  0
LAYER
  5
41C0
330
2
100
AcDbSymbolTableRecord
100
AcDbLayerTableRecord
  2
OBJECT
 70
     0
 62
     7
  6
CONTINUOUS
370
    -3
390
F
  0
ENDTAB
  0
TABLE
  2
STYLE
  5
3
330
0
100
AcDbSymbolTable
 70
     7
  0
STYLE
  5
11
330
3
100
AcDbSymbolTableRecord
100
AcDbTextStyleTableRecord
  2
STANDARD
 70
     0
 40
0.0
 41
1.0
 50
0.0
 71
     0
 42
0.2
  3
txt
  4

  0
STYLE
  5
27
330
3
100
AcDbSymbolTableRecord
100
AcDbTextStyleTableRecord
  2
ROMANS
 70
     0
 40
0.0
 41
1.0
 50
0.0
 71
     0
 42
0.09375
  3
romans
  4

  0
STYLE
  5
29
330
3
100
AcDbSymbolTableRecord
100
AcDbTextStyleTableRecord
  2
HELR
 70
     0
 40
0.0
 41
1.0
 50
0.0
 71
     0
 42
0.2
  3
HELV.shx
  4

  0
STYLE
  5
41C1
330
3
100
AcDbSymbolTableRecord
100
AcDbTextStyleTableRecord
  2
KANJI
 70
     0
 40
0.0
 41
1.0
 50
0.0
 71
     0
 42
2.0
  3
TXT
  4
BIGFONT
  0
STYLE
  5
4BC0
330
3
100
AcDbSymbolTableRecord
100
AcDbTextStyleTableRecord
  2

 70
     1
 40
0.0
 41
1.0
 50
0.0
 71
     0
 42
0.09375
  3
genltshp.shx
  4

  0
STYLE
  5
4BC5
330
3
100
AcDbSymbolTableRecord
100
AcDbTextStyleTableRecord
  2
ACANSTS
 70
     0
 40
1.0
 41
1.0
 50
0.0
 71
     0
 42
0.09375
  3
romans.shx
  4

  0
STYLE
  5
4BD1
330
3
100
AcDbSymbolTableRecord
100
AcDbTextStyleTableRecord
  2
ACANSGDT
 70
     0
 40
0.0
 41
1.0
 50
0.0
 71
     0
 42
0.09375
  3
AMGDT
  4

  0
ENDTAB
  0
TABLE
  2
VIEW
  5
6
330
0
100
AcDbSymbolTable
 70
     0
  0
ENDTAB
  0
TABLE
  2
UCS
  5
7
330
0
100
AcDbSymbolTable
 70
     0
  0
ENDTAB
  0
TABLE
  2
APPID
  5
9
330
0
100
AcDbSymbolTable
 70
    11
  0
APPID
  5
12
330
9
100
AcDbSymbolTableRecord
100
AcDbRegAppTableRecord
  2
ACAD
 70
     0
  0
APPID
  5
3E3
330
9
100
AcDbSymbolTableRecord
100
AcDbRegAppTableRecord
  2
DCO15
 70
     0
  0
APPID
  5
4B58
330
9
100
AcDbSymbolTableRecord
100
AcDbRegAppTableRecord
  2
MCAD_NO_VIS
 70
     0
  0
APPID
  5
4B59
330
9
100
AcDbSymbolTableRecord
100
AcDbRegAppTableRecord
  2
ACAD_TEMP_GRAPHIC
 70
     0
  0
APPID
  5
4B87
330
9
100
AcDbSymbolTableRecord
100
AcDbRegAppTableRecord
  2
AD_DRAW
 70
     0
  0
APPID
  5
4B8A
330
9
100
AcDbSymbolTableRecord
100
AcDbRegAppTableRecord
  2
ACATTRIBSERVICES
 70
     0
  0
APPID
  5
4BAA
330
9
100
AcDbSymbolTableRecord
100
AcDbRegAppTableRecord
  2
DESIGNERASSEMBLIES
 70
     0
  0
APPID
  5
4BB0
330
9
100
AcDbSymbolTableRecord
100
AcDbRegAppTableRecord
  2
ACADM_DIM_EDIT
 70
     0
  0
APPID
  5
4BB1
330
9
100
AcDbSymbolTableRecord
100
AcDbRegAppTableRecord
  2
AMDT_DM_ADJ
 70
     0
  0
APPID
  5
4BDE
330
9
100
AcDbSymbolTableRecord
100
AcDbRegAppTableRecord
  2
ACAD_DSTYLE_DIMARC_LENGTH_SYMBOL
 70
     0
  0
APPID
  5
4BDF
330
9
100
AcDbSymbolTableRecord
100
AcDbRegAppTableRecord
  2
ACAD_DSTYLE_DIMJOGGED_JOGANGLE_SYMBOL
 70
     0
  0
ENDTAB
  0
TABLE
  2
DIMSTYLE
  5
A
330
0
100
AcDbSymbolTable
 70
     7
100
AcDbDimStyleTable
 71
     1
340
3B8
  0
DIMSTYLE
105
3B8
330
A
100
AcDbSymbolTableRecord
100
AcDbDimStyleTableRecord
  2
Standard
 70
     0
 41
0.15
 44
0.0625
140
0.09
176
     1
177
     1
178
     7
340
11
  0
DIMSTYLE
105
4BDD
330
A
100
AcDbSymbolTableRecord
100
AcDbDimStyleTableRecord
  2
AM_ANSI
 70
     0
  4
mm
 41
0.1
 42
0.05
 43
0.5
 44
0.1
 47
0.1
 48
0.1
 78
     7
 79
     2
140
0.12
141
0.0
146
0.71
147
0.06
176
   256
177
   256
178
     2
274
     4
284
     7
340
11
371
    -1
372
    -1
1001
ACAD_DSTYLE_DIMARC_LENGTH_SYMBOL
1070
   379
1070
     1
1001
ACAD_DSTYLE_DIMJOGGED_JOGANGLE_SYMBOL
1070
   384
1040
0.7853981633974483
  0
DIMSTYLE
105
4BE6
330
A
100
AcDbSymbolTableRecord
100
AcDbDimStyleTableRecord
  2
AM_ANSI$3
 70
     0
  4
mm
 41
0.1
 42
0.05
 43
0.5
 44
0.1
 47
0.1
 48
0.1
 78
     7
 79
     2
140
0.12
141
0.0
146
0.71
147
0.06
176
   256
177
   256
178
     2
274
     4
284
     7
288
     1
289
     0
340
11
371
    -1
372
    -1
1001
ACAD_DSTYLE_DIMARC_LENGTH_SYMBOL
1070
   379
1070
     1
1001
ACAD_DSTYLE_DIMJOGGED_JOGANGLE_SYMBOL
1070
   384
1040
0.7853981633974483
  0
DIMSTYLE
105
4BE9
330
A
100
AcDbSymbolTableRecord
100
AcDbDimStyleTableRecord
  2
AM_ANSI$4
 70
     0
  4
mm
 41
0.1
 42
0.05
 43
0.5
 44
0.1
 47
0.1
 48
0.1
 78
     7
 79
     2
140
0.12
141
0.0
146
0.71
147
0.06
176
   256
177
   256
178
     2
274
     4
284
     7
288
     1
289
     0
340
11
371
    -1
372
    -1
1001
ACAD_DSTYLE_DIMARC_LENGTH_SYMBOL
1070
   379
1070
     1
1001
ACAD_DSTYLE_DIMJOGGED_JOGANGLE_SYMBOL
1070
   384
1040
0.7853981633974483
  0
DIMSTYLE
105
4BEE
330
A
100
AcDbSymbolTableRecord
100
AcDbDimStyleTableRecord
  2
AM_ANSI$7
 70
     0
  4
mm
 41
0.1
 42
0.05
 43
0.5
 44
0.1
 47
0.1
 48
0.1
 78
     7
 79
     2
140
0.24
141
0.0
146
0.71
147
0.06
176
   256
177
   256
178
     2
274
     4
284
     7
340
11
371
    -1
372
    -1
1001
ACAD_DSTYLE_DIMARC_LENGTH_SYMBOL
1070
   379
1070
     1
1001
ACAD_DSTYLE_DIMJOGGED_JOGANGLE_SYMBOL
1070
   384
1040
0.7853981633974483
  0
DIMSTYLE
105
4BF1
330
A
100
AcDbSymbolTableRecord
100
AcDbDimStyleTableRecord
  2
AM_ANSI$SF
 70
     0
  4
mm
 41
0.1
 42
0.05
 43
0.5
 44
0.1
 47
0.1
 48
0.1
 75
     1
 76
     1
 78
     7
 79
     2
140
0.12
141
0.0
146
0.71
147
0.06
176
   256
177
   256
178
     2
274
     4
284
     7
340
11
371
    -1
372
    -1
1001
ACAD_DSTYLE_DIMARC_LENGTH_SYMBOL
1070
   379
1070
     1
1001
ACAD_DSTYLE_DIMJOGGED_JOGANGLE_SYMBOL
1070
   384
1040
0.7853981633974483
  0
DIMSTYLE
105
4BF8
330
A
100
AcDbSymbolTableRecord
100
AcDbDimStyleTableRecord
  2
AM_ANSI$SH
 70
     0
  4
mm
 41
0.1
 42
0.05
 43
0.5
 44
0.1
 47
0.1
 48
0.1
 75
     1
 76
     1
 78
     7
 79
     2
140
0.12
141
0.0
146
0.71
147
0.06
173
     1
176
   256
177
   256
178
     2
274
     4
284
     7
340
11
343
4BF2
371
    -1
372
    -1
1001
ACAD_DSTYLE_DIMARC_LENGTH_SYMBOL
1070
   379
1070
     1
1001
ACAD_DSTYLE_DIMJOGGED_JOGANGLE_SYMBOL
1070
   384
1040
0.7853981633974483
  0
ENDTAB
  0
TABLE
  2
BLOCK_RECORD
  5
1
330
0
100
AcDbSymbolTable
 70
     3
  0
BLOCK_RECORD
  5
1E
330
1
100
AcDbSymbolTableRecord
100
AcDbBlockTableRecord
  2
*Model_Space
340
21
  0
BLOCK_RECORD
  5
1A
330
1
100
AcDbSymbolTableRecord
100
AcDbBlockTableRecord
  2
*Paper_Space
340
1D
  0
BLOCK_RECORD
  5
597
330
1
100
AcDbSymbolTableRecord
100
AcDbBlockTableRecord
  2
_OPEN
340
0
  0
BLOCK_RECORD
  5
4BF2
330
1
100
AcDbSymbolTableRecord
100
AcDbBlockTableRecord
  2
GENAXEH
340
0
  0
ENDTAB
  0
ENDSEC
  0
SECTION
  2
BLOCKS
  0
BLOCK
  5
37
330
1E
100
AcDbEntity
  8
0
100
AcDbBlockBegin
  2
*Model_Space
 70
     0
 10
0.0
 20
0.0
 30
0.0
  3
*Model_Space
  1

  0
ENDBLK
  5
38
330
1E
100
AcDbEntity
  8
0
100
AcDbBlockEnd
  0
BLOCK
  5
35
330
1A
100
AcDbEntity
 67
     1
  8
0
100
AcDbBlockBegin
  2
*Paper_Space
 70
     0
 10
0.0
 20
0.0
 30
0.0
  3
*Paper_Space
  1

  0
ENDBLK
  5
36
330
1A
100
AcDbEntity
 67
     1
  8
0
100
AcDbBlockEnd
  0
BLOCK
  5
59B
330
597
100
AcDbEntity
  8
0
100
AcDbBlockBegin
  2
_OPEN
 70
     0
 10
0.0
 20
0.0
 30
0.0
  3
_OPEN
  1

  0
LINE
  5
598
330
597
100
AcDbEntity
  8
0
  6
ByBlock
 62
     0
100
AcDbLine
 10
-1.0
 20
0.1666666666666666
 30
0.0
 11
0.0
 21
0.0
 31
0.0
  0
LINE
  5
599
330
597
100
AcDbEntity
  8
0
  6
ByBlock
 62
     0
100
AcDbLine
 10
0.0
 20
0.0
 30
0.0
 11
-1.0
 21
-0.1666666666666666
 31
0.0
  0
LINE
  5
59A
330
597
100
AcDbEntity
  8
0
  6
ByBlock
 62
     0
100
AcDbLine
 10
0.0
 20
0.0
 30
0.0
 11
-1.0
 21
0.0
 31
0.0
  0
ENDBLK
  5
59C
330
597
100
AcDbEntity
  8
0
100
AcDbBlockEnd
  0
BLOCK
  5
4BF4
330
4BF2
100
AcDbEntity
  8
0
100
AcDbBlockBegin
  2
GENAXEH
 70
     0
 10
0.0
 20
0.0
 30
0.0
  3
GENAXEH
  1

  0
LINE
  5
4BF3
330
4BF2
100
AcDbEntity
  8
0
100
AcDbLine
 10
-1.0
 20
0.0
 30
0.0
 11
1.0
 21
0.0
 31
0.0
  0
ENDBLK
  5
4BF5
330
4BF2
100
AcDbEntity
  8
0
100
AcDbBlockEnd
  0
ENDSEC
  0
SECTION
  2
ENTITIES
  0
TEXT
  5
C7
330
1E
100
AcDbEntity
  8
DIM
 62
     1
100
AcDbText
 10
16.35516340111906
 20
7.313182641180002
 30
0.0
 40
0.125
  1

 50
90.0
100
AcDbText
  0
TEXT
  5
C9
330
1E
100
AcDbEntity
  8
DIM
 62
     1
100
AcDbText
 10
13.34837863483334
 20
7.179439377583786
 30
0.0
 40
0.125
  1

 50
90.0
100
AcDbText
  0
TEXT
  5
DA
330
1E
100
AcDbEntity
  8
DIM
 62
     1
100
AcDbText
 10
13.6904845814324
 20
8.486994831764484
 30
0.0
 40
0.125
  1

 50
90.0
100
AcDbText
  0
TEXT
  5
DB
330
1E
100
AcDbEntity
  8
DIM
 62
     1
100
AcDbText
 10
10.68369981514667
 20
8.353251568168268
 30
0.0
 40
0.125
  1

 50
90.0
100
AcDbText
  0
TEXT
  5
7BB
330
1E
100
AcDbEntity
  8
0
100
AcDbText
 10
14.54294672637054
 20
0.6371003189161656
 30
0.0
 40
0.1213397244080934
  1
802B-SPADXSX
  7
HELR
 72
     4
 11
15.25076178541776
 21
0.6977701811202124
 31
0.0
100
AcDbText
  0
TEXT
  5
9B3
330
1E
100
AcDbEntity
  8
DIM
 62
     1
100
AcDbText
 10
25.09672621712861
 20
7.640701491704227
 30
0.0
 40
0.125
  1

 50
90.0
100
AcDbText
  0
TEXT
  5
9B4
330
1E
100
AcDbEntity
  8
DIM
 62
     1
100
AcDbText
 10
22.08994145084288
 20
7.506958228108011
 30
0.0
 40
0.125
  1

 50
90.0
100
AcDbText
  0
TEXT
  5
9B5
330
1E
100
AcDbEntity
  8
DIM
 62
     1
100
AcDbText
 10
22.43204739744194
 20
8.814513682288708
 30
0.0
 40
0.125
  1

 50
90.0
100
AcDbText
  0
TEXT
  5
9B6
330
1E
100
AcDbEntity
  8
DIM
 62
     1
100
AcDbText
 10
19.42526263115621
 20
8.680770418692492
 30
0.0
 40
0.125
  1

 50
90.0
100
AcDbText
  0
TEXT
  5
9B7
330
1E
100
AcDbEntity
  8
0
100
AcDbText
 10
11.51472627349514
 20
1.620220178285536
 30
0.0
 40
0.1213397244080934
  1
OUTLINE DRAWING
  7
HELR
 72
     4
 11
12.3236577695491
 21
1.680890040489583
 31
0.0
100
AcDbText
  0
TEXT
  5
9B8
330
1E
100
AcDbEntity
  8
0
100
AcDbText
 10
12.10986873130627
 20
1.420866795770394
 30
0.0
 40
0.1213397244080934
  1
802B
  7
HELR
 72
     4
 11
12.3236577695491
 21
1.481536657974441
 31
0.0
100
AcDbText
  0
TEXT
  5
9B9
330
1E
100
AcDbEntity
  8
0
100
AcDbText
 10
11.26337970150695
 20
1.221513413255252
 30
0.0
 40
0.1213397244080934
  1
COMPACT LIMIT SWITCH
  7
HELR
 72
     4
 11
12.3236577695491
 21
1.282183275459299
 31
0.0
100
AcDbText
  0
TEXT
  5
3F15
330
1E
100
AcDbEntity
  8
FORM
100
AcDbText
 10
13.37613044214886
 20
10.59631187162067
 30
0.0
 40
0.08
  1
REVISIONS
 72
     4
 11
13.7094637754822
 21
10.63631187162067
 31
0.0
100
AcDbText
  0
TEXT
  5
3F16
330
1E
100
AcDbEntity
  8
FORM
100
AcDbText
 10
13.73530506185902
 20
10.38129937162067
 30
0.0
 40
0.06
  1
DESCRIPTION
 72
     4
 11
14.03530506185902
 21
10.41129937162067
 31
0.0
100
AcDbText
  0
TEXT
  5
3F17
330
1E
100
AcDbEntity
  8
FORM
100
AcDbText
 10
11.7146780754822
 20
10.38129937162067
 30
0.0
 40
0.06
  1
REV.
 72
     4
 11
11.8146780754822
 21
10.41129937162067
 31
0.0
100
AcDbText
  0
TEXT
  5
3F18
330
1E
100
AcDbEntity
  8
FORM
100
AcDbText
 10
16.14906399964001
 20
10.38129937162067
 30
0.0
 40
0.06
  1
DRAFTER
 72
     4
 11
16.34906399964001
 21
10.41129937162067
 31
0.0
100
AcDbText
  0
LINE
  5
3F19
330
1E
100
AcDbEntity
  8
FORM
100
AcDbLine
 10
0.1042494754821988
 20
0.3013358716206689
 30
0.0
 11
0.1042494754821988
 21
10.76133587162067
 31
0.0
  0
LINE
  5
3F1A
330
1E
100
AcDbEntity
  8
FORM
100
AcDbLine
 10
0.1042494754821988
 20
10.76133587162067
 30
0.0
 11
16.5642494754822
 21
10.76133587162067
 31
0.0
  0
LINE
  5
3F1B
330
1E
100
AcDbEntity
  8
FORM
100
AcDbLine
 10
16.5642494754822
 20
10.76133587162067
 30
0.0
 11
16.5642494754822
 21
0.3013358716206689
 31
0.0
  0
LINE
  5
3F1C
330
1E
100
AcDbEntity
  8
FORM
100
AcDbLine
 10
16.5642494754822
 20
0.3013358716206689
 30
0.0
 11
0.1042494754821988
 21
0.3013358716206689
 31
0.0
  0
LINE
  5
3F1D
330
1E
100
AcDbEntity
  8
FORM
100
AcDbLine
 10
16.5642494754822
 20
10.51128787162067
 30
0.0
 11
11.6946780754822
 21
10.51128787162067
 31
0.0
  0
LINE
  5
3F1E
330
1E
100
AcDbEntity
  8
FORM
100
AcDbLine
 10
16.5642494754822
 20
10.31131087162067
 30
0.0
 11
11.6946780754822
 21
10.31131087162067
 31
0.0
  0
LINE
  5
3F1F
330
1E
100
AcDbEntity
  8
FORM
100
AcDbLine
 10
11.6946780754822
 20
10.1116735987442
 30
0.0
 11
11.6946780754822
 21
10.76133587162067
 31
0.0
  0
LINE
  5
3F20
330
1E
100
AcDbEntity
  8
FORM
100
AcDbLine
 10
11.93467807548219
 20
10.1116735987442
 30
0.0
 11
11.93467807548219
 21
10.51128787162067
 31
0.0
  0
LINE
  5
3F21
330
1E
100
AcDbEntity
  8
FORM
100
AcDbLine
 10
16.13593204823584
 20
10.1116735987442
 30
0.0
 11
16.13593204823584
 21
10.51128787162067
 31
0.0
  0
LINE
  5
3F22
330
1E
100
AcDbEntity
  8
FORM
100
AcDbLine
 10
16.54425243591942
 20
10.1116735987442
 30
0.0
 11
11.67468103591941
 21
10.1116735987442
 31
0.0
  0
TEXT
  5
3F23
330
1E
100
AcDbEntity
  8
FORM
100
AcDbText
 10
11.8046780754822
 20
10.1814922222368
 30
0.0
 40
0.06
  1
1
 72
     4
 11
11.8146780754822
 21
10.2114922222368
 31
0.0
100
AcDbText
  0
TEXT
  5
3F24
330
1E
100
AcDbEntity
  8
FORM
100
AcDbText
 10
12.08889710857868
 20
10.1814922222368
 30
0.0
 40
0.06
  1
CREATED
 72
     4
 11
12.28889710857868
 21
10.2114922222368
 31
0.0
100
AcDbText
  0
TEXT
  5
3F25
330
1E
100
AcDbEntity
  8
FORM
100
AcDbText
 10
16.26906399964001
 20
10.1814922222368
 30
0.0
 40
0.06
  1
MJL
 72
     4
 11
16.34906399964001
 21
10.2114922222368
 31
0.0
100
AcDbText
  0
TEXT
  5
3F26
330
1E
100
AcDbEntity
  8
BORDER
100
AcDbText
 10
14.24675382472929
 20
1.832088277798209
 30
0.0
 40
0.08
  1
FOR TECHNICAL SUPPORT CALL
100
AcDbText
  0
LINE
  5
3F27
330
1E
100
AcDbEntity
  8
BORDER
 62
     7
100
AcDbLine
 10
8.164214953796033
 20
0.880152121685807
 30
0.0
 11
10.6742212964188
 21
0.880152121685807
 31
0.0
  0
LINE
  5
3F28
330
1E
100
AcDbEntity
  8
BORDER
 62
     7
100
AcDbLine
 10
8.164214953796033
 20
0.5965697534844594
 30
0.0
 11
10.6742212964188
 21
0.5965697534844594
 31
0.0
  0
LINE
  5
3F29
330
1E
100
AcDbEntity
  8
BORDER
 62
     7
100
AcDbLine
 10
8.164214953796033
 20
2.310664685980217
 30
0.0
 11
16.5642494754822
 21
2.310664685980217
 31
0.0
  0
CIRCLE
  5
3F2A
330
1E
100
AcDbEntity
  8
BORDER
100
AcDbCircle
 10
8.975235392842808
 20
1.629187519764812
 30
0.0
 40
0.1399439102212038
  0
CIRCLE
  5
3F2B
330
1E
100
AcDbEntity
  8
BORDER
100
AcDbCircle
 10
8.975235392842808
 20
1.629187519764812
 30
0.0
 40
0.2350004304560674
  0
LINE
  5
3F2C
330
1E
100
AcDbEntity
  8
BORDER
 62
     7
100
AcDbLine
 10
10.6626304614487
 20
0.5918000678843392
 30
0.0
 11
14.07264668340649
 21
0.5918000678843392
 31
0.0
  0
TEXT
  5
3F2E
330
1E
100
AcDbEntity
  8
BORDER
100
AcDbText
 10
8.252778585122825
 20
2.073417411838359
 30
0.0
 40
0.06
  1
DIMENSIONS ARE IN MM [INCHES]
  7
ROMANS
100
AcDbText
  0
LINE
  5
3F2F
330
1E
100
AcDbEntity
  8
BORDER
 62
     7
100
AcDbLine
 10
10.6742212964188
 20
1.988654942763002
 30
0.0
 11
8.164214953796033
 21
1.988654942763002
 31
0.0
  0
LINE
  5
3F30
330
1E
100
AcDbEntity
  8
BORDER
 62
     7
100
AcDbLine
 10
8.164214953796033
 20
1.163768028334882
 30
0.0
 11
10.6742212964188
 21
1.163768028334882
 31
0.0
  0
TEXT
  5
3F31
330
1E
100
AcDbEntity
  8
BORDER
100
AcDbText
 10
8.231050836667568
 20
2.185660268230411
 30
0.0
 40
0.06
  1
UNLESS OTHERWISE SPECIFIED
  7
ROMANS
 72
     4
 11
8.929622265238997
 21
2.215660268230411
 31
0.0
100
AcDbText
  0
LINE
  5
3F32
330
1E
100
AcDbEntity
  8
BORDER
 62
     7
100
AcDbLine
 10
8.164214953796033
 20
2.310664685980217
 30
0.0
 11
8.164214953796033
 21
0.3013358716206689
 31
0.0
  0
LINE
  5
3F33
330
1E
100
AcDbEntity
  8
BORDER
100
AcDbLine
 10
10.05345745430098
 20
1.86418795022088
 30
0.0
 11
10.05345745430098
 21
1.394187089308745
 31
0.0
  0
LINE
  5
3F34
330
1E
100
AcDbEntity
  8
BORDER
100
AcDbLine
 10
9.469758293584561
 20
1.769131429986016
 30
0.0
 11
9.469758293584561
 21
1.489243609543608
 31
0.0
  0
TEXT
  5
3F35
330
1E
100
AcDbEntity
  8
BORDER
100
AcDbText
 10
14.75034761914786
 20
1.677567584262366
 30
0.0
 40
0.08
  1
+1 440.646.5800
100
AcDbText
  0
TEXT
  5
3F36
330
1E
100
AcDbEntity
  8
BORDER
100
AcDbText
 10
8.849680802323176
 20
1.224269202352133
 30
0.0
 40
0.06
  1
THIRD ANGLE PROJECTION
  7
ROMANS
 72
     4
 11
9.438252230894605
 21
1.254269202352134
 31
0.0
100
AcDbText
  0
LINE
  5
3F37
330
1E
100
AcDbEntity
  8
BORDER
100
AcDbLine
 10
10.05345745430098
 20
1.394187089308745
 30
0.0
 11
9.469758293584561
 21
1.489243609543608
 31
0.0
  0
LINE
  5
3F38
330
1E
100
AcDbEntity
  8
BORDER
100
AcDbLine
 10
10.05345745430098
 20
1.86418795022088
 30
0.0
 11
9.469758293584561
 21
1.769131429986016
 31
0.0
  0
TEXT
  5
3F39
330
1E
100
AcDbEntity
  8
BORDER
100
AcDbText
 10
8.252838918385634
 20
0.9937680024362871
 30
0.0
 40
0.07
  1
MATERIAL:    N/A
  7
ROMANS
 11
8.252838918385634
 21
1.063768002436287
 31
0.0
100
AcDbText
 73
     3
  0
TEXT
  5
3F3A
330
1E
100
AcDbEntity
  8
BORDER
100
AcDbText
 10
8.252838918385634
 20
0.7101520957872121
 30
0.0
 40
0.07
  1
FINISH:    N/A
  7
ROMANS
 11
8.252838918385634
 21
0.7801520957872122
 31
0.0
100
AcDbText
 73
     3
  0
TEXT
  5
3F3B
330
1E
100
AcDbEntity
  8
BORDER
100
AcDbText
 10
8.241657103055366
 20
0.4098107168812891
 30
0.0
 40
0.07
  1
SCALE:    1 : 1
  7
ROMANS
 11
8.241657103055366
 21
0.4798107168812891
 31
0.0
100
AcDbText
 73
     3
  0
LINE
  5
3F3C
330
1E
100
AcDbEntity
  8
BORDER
 62
     7
100
AcDbLine
 10
12.50422129641874
 20
0.5918000678843392
 30
0.0
 11
12.50422129641873
 21
0.3013358716206689
 31
0.0
  0
TEXT
  5
3F3D
330
1E
100
AcDbEntity
  8
BORDER
100
AcDbText
 10
11.16346154336717
 20
0.3816849826689754
 30
0.0
 40
0.09
  1
B. FORTIER
  7
ROMANS
100
AcDbText
  0
LINE
  5
3F3E
330
1E
100
AcDbEntity
  8
BORDER
 62
     7
100
AcDbLine
 10
10.6742212964188
 20
2.310664685980217
 30
0.0
 11
10.6742212964188
 21
0.3013358716206689
 31
0.0
  0
TEXT
  5
3F3F
330
1E
100
AcDbEntity
  8
BORDER
100
AcDbText
 10
10.74583298220857
 20
0.3910254962221138
 30
0.0
 40
0.1
  1
DRW.
  7
ROMANS
 11
10.74583298220857
 21
0.4410254962221139
 31
0.0
100
AcDbText
 73
     2
  0
TEXT
  5
3F40
330
1E
100
AcDbEntity
  8
BORDER
100
AcDbText
 10
12.61209870062048
 20
0.3935679008708526
 30
0.0
 40
0.1
  1
DATE
  7
ROMANS
100
AcDbText
  0
LINE
  5
3F43
330
1E
100
AcDbEntity
  8
BORDER
 62
     7
100
AcDbLine
 10
16.16423529139655
 20
0.7613526737798431
 30
0.0
 11
16.5642494754822
 21
0.7613526737798431
 31
0.0
  0
TEXT
  5
3F44
330
1E
100
AcDbEntity
  8
BORDER
100
AcDbText
 10
16.26023335346775
 20
0.7914822653982334
 30
0.0
 40
0.06
  1
REV.
  7
ROMANS
100
AcDbText
  0
TEXT
  5
3F45
330
1E
100
AcDbEntity
  8
BORDER
100
AcDbText
 10
14.17297786485456
 20
2.008125303149491
 30
0.0
 40
0.12
  1
ROCKWELL AUTOMATION
100
AcDbText
  0
TEXT
  5
3F46
330
1E
100
AcDbEntity
  8
BORDER
100
AcDbText
 10
14.15686668632682
 20
1.240125519652671
 30
0.0
 40
0.06
  1
ROCKWELL AUTOMATION AND MAY NOT COPIED,
100
AcDbText
  0
TEXT
  5
3F47
330
1E
100
AcDbEntity
  8
BORDER
100
AcDbText
 10
14.15686668632682
 20
1.140125519652649
 30
0.0
 40
0.06
  1
USED OR DISCLOSED FOR ANY PURPOSE EXCEPT 
100
AcDbText
  0
LINE
  5
3F48
330
1E
100
AcDbEntity
  8
BORDER
 62
     7
100
AcDbLine
 10
14.08423751837659
 20
0.5013329898443751
 30
0.0
 11
16.5642494754822
 21
0.5013329898443751
 31
0.0
  0
LINE
  5
3F49
330
1E
100
AcDbEntity
  8
BORDER
 62
     7
100
AcDbLine
 10
14.08423751837659
 20
0.8813526737798476
 30
0.0
 11
16.5642494754822
 21
0.8813526737798476
 31
0.0
  0
LINE
  5
3F4A
330
1E
100
AcDbEntity
  8
BORDER
 62
     7
100
AcDbLine
 10
14.08423751837659
 20
1.483895532676335
 30
0.0
 11
16.5642494754822
 21
1.483895532676335
 31
0.0
  0
TEXT
  5
3F4B
330
1E
100
AcDbEntity
  8
BORDER
100
AcDbText
 10
15.20172277357306
 20
0.3513358716206802
 30
0.0
 40
0.0781
  1
1
  7
ROMANS
100
AcDbText
  0
TEXT
  5
3F4C
330
1E
100
AcDbEntity
  8
BORDER
100
AcDbText
 10
16.07672277357307
 20
0.3513358716206802
 30
0.0
 40
0.0781
  1
1
  7
ROMANS
100
AcDbText
  0
TEXT
  5
3F4D
330
1E
100
AcDbEntity
  8
BORDER
100
AcDbText
 10
14.45808700369694
 20
0.3539194570580584
 30
0.0
 40
0.1
  1
B
  7
ROMANS
 72
     1
 11
14.51046795607789
 21
0.3539194570580584
 31
0.0
100
AcDbText
  0
LINE
  5
3F4E
330
1E
100
AcDbEntity
  8
BORDER
 62
     7
100
AcDbLine
 10
14.08423751837659
 20
0.3013358716206689
 30
0.0
 11
14.08423751837659
 21
2.310664685980217
 31
0.0
  0
TEXT
  5
3F4F
330
1E
100
AcDbEntity
  8
BORDER
100
AcDbText
 10
14.13838683215874
 20
0.3538095471564908
 30
0.0
 40
0.08
  1
SIZE   SHEET         OF     
  7
ROMANS
100
AcDbText
  0
TEXT
  5
3F50
330
1E
100
AcDbEntity
  8
BORDER
100
AcDbText
 10
14.15686668632682
 20
1.340125519652666
 30
0.0
 40
0.06
  1
THIS DRAWING IS PROPERTY OF
100
AcDbText
  0
TEXT
  5
3F51
330
1E
100
AcDbEntity
  8
BORDER
100
AcDbText
 10
14.15686668632682
 20
1.040125519652654
 30
0.0
 40
0.06
  1
AS AUTHORIZED IN WRITING BY
100
AcDbText
  0
TEXT
  5
3F52
330
1E
100
AcDbEntity
  8
BORDER
100
AcDbText
 10
14.15686668632682
 20
0.9401255196526605
 30
0.0
 40
0.06
  1
ROCKWELL AUTOMATION.
100
AcDbText
  0
TEXT
  5
3F53
330
1E
100
AcDbEntity
  8
BORDER
100
AcDbText
 10
13.1261292903136
 20
0.3963337397533344
 30
0.0
 40
0.09375
  1
10/11/06
  7
ROMANS
100
AcDbText
  0
TEXT
  5
3F54
330
1E
100
AcDbEntity
  8
BORDER
100
AcDbText
 10
14.13838683215874
 20
0.7411669347464205
 30
0.0
 40
0.06
  1
DWG.
  7
ROMANS
100
AcDbText
  0
TEXT
  5
3F55
330
1E
100
AcDbEntity
  8
BORDER
100
AcDbText
 10
14.13838683215874
 20
0.6078336014130948
 30
0.0
 40
0.06
  1
NO.
  7
ROMANS
100
AcDbText
  0
LINE
  5
3F57
330
1E
100
AcDbEntity
  8
BORDER
 62
     7
100
AcDbLine
 10
16.16423529139655
 20
0.8813526737798476
 30
0.0
 11
16.16423529139655
 21
0.5013329898443751
 31
0.0
  0
TEXT
  5
3F58
330
1E
100
AcDbEntity
  8
BORDER
100
AcDbText
 10
16.2988682206034
 20
0.5895054857508378
 30
0.0
 40
0.1
  1
1
  7
ROMANS
 72
     1
 11
16.33934441107959
 21
0.5895054857508378
 31
0.0
100
AcDbText
  0
LINE
  5
465C
330
1E
100
AcDbEntity
  8
OBJECT
 62
     7
100
AcDbLine
 10
5.007417294192226
 20
6.741717863635228
 30
0.0
 11
5.007417294192226
 21
6.82203658765187
 31
0.0
  0
LINE
  5
465D
330
1E
100
AcDbEntity
  8
OBJECT
 62
     7
100
AcDbLine
 10
5.204500331088698
 20
6.741717863635228
 30
0.0
 11
5.204500331088698
 21
6.82203658765187
 31
0.0
  0
LINE
  5
465E
330
1E
100
AcDbEntity
  8
OBJECT
 62
     7
100
AcDbLine
 10
4.613252597865409
 20
6.741717863635228
 30
0.0
 11
4.613252597865409
 21
6.82203658765187
 31
0.0
  0
LINE
  5
465F
330
1E
100
AcDbEntity
  8
OBJECT
 62
     7
100
AcDbLine
 10
4.416171705478872
 20
6.741717863635228
 30
0.0
 11
4.416171705478872
 21
6.82203658765187
 31
0.0
  0
ARC
  5
466E
330
1E
100
AcDbEntity
  8
OBJECT
 62
     7
100
AcDbCircle
 10
4.546655625058171
 20
6.842116268656033
 30
0.0
 40
0.1204780860249682
100
AcDbArc
 50
270.0
 51
303.557312
  0
LINE
  5
4670
330
1E
100
AcDbEntity
  8
OBJECT
 62
     7
100
AcDbLine
 10
4.529220409930704
 20
6.665206058387969
 30
0.0
 11
5.091451325441648
 21
6.665206058387969
 31
0.0
  0
LINE
  5
4671
330
1E
100
AcDbEntity
  8
OBJECT
 62
     7
100
AcDbLine
 10
4.529220409930704
 20
6.721638182631066
 30
0.0
 11
5.091451325441648
 21
6.721638182631066
 31
0.0
  0
LINE
  5
4688
330
1E
100
AcDbEntity
  8
OBJECT
 62
     7
100
AcDbLine
 10
4.529220409930704
 20
6.625042712570937
 30
0.0
 11
4.529220409930704
 21
6.721638182631066
 31
0.0
  0
LINE
  5
4689
330
1E
100
AcDbEntity
  8
OBJECT
 62
     7
100
AcDbLine
 10
4.549312500177729
 20
6.665206058387969
 30
0.0
 11
4.549312500177729
 21
6.721638182631066
 31
0.0
  0
LINE
  5
468B
330
1E
100
AcDbEntity
  8
OBJECT
 62
     7
100
AcDbLine
 10
4.529232819173567
 20
6.625046696379644
 30
0.0
 11
4.549312500177729
 21
6.665206058387969
 31
0.0
  0
LINE
  5
468C
330
1E
100
AcDbEntity
  8
OBJECT
 62
     7
100
AcDbLine
 10
4.529220409930704
 20
6.721638182631066
 30
0.0
 11
4.482766843003266
 21
6.721638182631066
 31
0.0
  0
ARC
  5
468D
330
1E
100
AcDbEntity
  8
OBJECT
 62
     7
100
AcDbCircle
 10
4.482766843003266
 20
6.842116268656033
 30
0.0
 40
0.1204780860249682
100
AcDbArc
 50
236.4427032000001
 51
270.0
  0
ARC
  5
469A
330
1E
100
AcDbEntity
  8
OBJECT
 62
     7
100
AcDbCircle
 10
5.074014271015401
 20
6.842116268656033
 30
0.0
 40
0.1204780860249682
100
AcDbArc
 50
236.4427032000001
 51
270.0
  0
ARC
  5
469B
330
1E
100
AcDbEntity
  8
OBJECT
 62
     7
100
AcDbCircle
 10
4.679850032505309
 20
6.842116268656033
 30
0.0
 40
0.1204780860249682
100
AcDbArc
 50
236.4427032000001
 51
270.0
  0
ARC
  5
469C
330
1E
100
AcDbEntity
  8
OBJECT
 62
     7
100
AcDbCircle
 10
4.940819706946752
 20
6.842116268656033
 30
0.0
 40
0.1204780860249682
100
AcDbArc
 50
270.0
 51
303.557312
  0
LINE
  5
469D
330
1E
100
AcDbEntity
  8
OBJECT
 62
     7
100
AcDbLine
 10
5.091451325441648
 20
6.625042712570937
 30
0.0
 11
5.091451325441648
 21
6.721638182631066
 31
0.0
  0
LINE
  5
469E
330
1E
100
AcDbEntity
  8
OBJECT
 62
     7
100
AcDbLine
 10
5.071384206285922
 20
6.665206058387969
 30
0.0
 11
5.071384206285922
 21
6.721638182631066
 31
0.0
  0
LINE
  5
46A3
330
1E
100
AcDbEntity
  8
OBJECT
 62
     7
100
AcDbLine
 10
5.091463887290084
 20
6.625046696379644
 30
0.0
 11
5.071384206285922
 21
6.665206058387969
 31
0.0
  0
LINE
  5
46A5
330
1E
100
AcDbEntity
  8
OBJECT
 62
     7
100
AcDbLine
 10
5.137903049054374
 20
6.721638182631066
 30
0.0
 11
5.091451325441648
 21
6.721638182631066
 31
0.0
  0
ARC
  5
46A6
330
1E
100
AcDbEntity
  8
OBJECT
 62
     7
100
AcDbCircle
 10
5.137903049054374
 20
6.842116268656033
 30
0.0
 40
0.1204780860249682
100
AcDbArc
 50
270.0
 51
303.557312
  0
ARC
  5
46D0
330
1E
100
AcDbEntity
  8
OBJECT
 62
     7
100
AcDbCircle
 10
4.546655625058171
 20
6.842116268656033
 30
0.0
 40
0.1204780860249682
100
AcDbArc
 50
56.44269179999996
 51
90.0
  0
ARC
  5
46D1
330
1E
100
AcDbEntity
  8
OBJECT
 62
     7
100
AcDbCircle
 10
4.546655625058171
 20
6.721638182631066
 30
0.0
 40
0.1204780860249682
100
AcDbArc
 50
56.44263080000001
 51
90.0
  0
ARC
  5
46D2
330
1E
100
AcDbEntity
  8
OBJECT
 62
     7
100
AcDbCircle
 10
4.546655625058171
 20
6.962594354680998
 30
0.0
 40
0.1204780860249682
100
AcDbArc
 50
270.0
 51
303.557312
  0
LINE
  5
46D5
330
1E
100
AcDbEntity
  8
OBJECT
 62
     7
100
AcDbLine
 10
4.529220409930704
 20
6.962594354680998
 30
0.0
 11
5.091451325441648
 21
6.962594354680998
 31
0.0
  0
LINE
  5
46D6
330
1E
100
AcDbEntity
  8
OBJECT
 62
     7
100
AcDbLine
 10
4.529220409930704
 20
6.842116268656033
 30
0.0
 11
5.091451325441648
 21
6.842116268656033
 31
0.0
  0
LINE
  5
46DC
330
1E
100
AcDbEntity
  8
OBJECT
 62
     7
100
AcDbLine
 10
4.529220409930704
 20
6.842116268656033
 30
0.0
 11
4.482766843003266
 21
6.842116268656033
 31
0.0
  0
LINE
  5
46DD
330
1E
100
AcDbEntity
  8
OBJECT
 62
     7
100
AcDbLine
 10
4.529220409930704
 20
6.962594354680998
 30
0.0
 11
4.482766843003266
 21
6.962594354680998
 31
0.0
  0
LINE
  5
46DE
330
1E
100
AcDbEntity
  8
OBJECT
 62
     7
100
AcDbLine
 10
4.416171705478872
 20
6.862195949660193
 30
0.0
 11
4.416171705478872
 21
6.942514673676841
 31
0.0
  0
ARC
  5
46DF
330
1E
100
AcDbEntity
  8
OBJECT
 62
     7
100
AcDbCircle
 10
4.482766843003266
 20
6.842116268656033
 30
0.0
 40
0.1204780860249682
100
AcDbArc
 50
90.0
 51
123.5572967999999
  0
ARC
  5
46E1
330
1E
100
AcDbEntity
  8
OBJECT
 62
     7
100
AcDbCircle
 10
4.482769296740285
 20
6.721638182631066
 30
0.0
 40
0.1204780860249682
100
AcDbArc
 50
90.0
 51
123.5574036
  0
ARC
  5
46E2
330
1E
100
AcDbEntity
  8
OBJECT
 62
     7
100
AcDbCircle
 10
4.482766843003266
 20
6.962594354680998
 30
0.0
 40
0.1204780860249682
100
AcDbArc
 50
236.4427032000001
 51
270.0
  0
ARC
  5
46E4
330
1E
100
AcDbEntity
  8
OBJECT
 62
     7
100
AcDbCircle
 10
5.074014271015401
 20
6.842116268656033
 30
0.0
 40
0.1204780860249682
100
AcDbArc
 50
90.0
 51
123.5572967999999
  0
ARC
  5
46E5
330
1E
100
AcDbEntity
  8
OBJECT
 62
     7
100
AcDbCircle
 10
5.074014271015401
 20
6.721638182631066
 30
0.0
 40
0.1204780860249682
100
AcDbArc
 50
90.0
 51
123.5574036
  0
ARC
  5
46E6
330
1E
100
AcDbEntity
  8
OBJECT
 62
     7
100
AcDbCircle
 10
5.074014271015401
 20
6.962594354680998
 30
0.0
 40
0.1204780860249682
100
AcDbArc
 50
236.4427032000001
 51
270.0
  0
LINE
  5
46E7
330
1E
100
AcDbEntity
  8
OBJECT
 62
     7
100
AcDbLine
 10
5.007417294192226
 20
6.862195949660193
 30
0.0
 11
5.007417294192226
 21
6.942514673676841
 31
0.0
  0
ARC
  5
46EA
330
1E
100
AcDbEntity
  8
OBJECT
 62
     7
100
AcDbCircle
 10
4.679850032505309
 20
6.842116268656033
 30
0.0
 40
0.1204780860249682
100
AcDbArc
 50
90.0
 51
123.5572967999999
  0
LINE
  5
46EB
330
1E
100
AcDbEntity
  8
OBJECT
 62
     7
100
AcDbLine
 10
4.613252597865409
 20
6.862195949660193
 30
0.0
 11
4.613252597865409
 21
6.942514673676841
 31
0.0
  0
ARC
  5
46F0
330
1E
100
AcDbEntity
  8
OBJECT
 62
     7
100
AcDbCircle
 10
4.679850032505309
 20
6.962594354680998
 30
0.0
 40
0.1204780860249682
100
AcDbArc
 50
236.4427032000001
 51
270.0
  0
ARC
  5
46F1
330
1E
100
AcDbEntity
  8
OBJECT
 62
     7
100
AcDbCircle
 10
4.679850032505309
 20
6.721638182631066
 30
0.0
 40
0.1204780860249682
100
AcDbArc
 50
90.0
 51
123.5574036
  0
ARC
  5
46F2
330
1E
100
AcDbEntity
  8
OBJECT
 62
     7
100
AcDbCircle
 10
4.940819706946752
 20
6.721638182631066
 30
0.0
 40
0.1204780860249682
100
AcDbArc
 50
56.44263080000001
 51
90.0
  0
ARC
  5
46F3
330
1E
100
AcDbEntity
  8
OBJECT
 62
     7
100
AcDbCircle
 10
4.940819706946752
 20
6.962594354680998
 30
0.0
 40
0.1204780860249682
100
AcDbArc
 50
270.0
 51
303.557312
  0
ARC
  5
46F4
330
1E
100
AcDbEntity
  8
OBJECT
 62
     7
100
AcDbCircle
 10
4.940819706946752
 20
6.842116268656033
 30
0.0
 40
0.1204780860249682
100
AcDbArc
 50
56.44269179999996
 51
90.0
  0
LINE
  5
46F7
330
1E
100
AcDbEntity
  8
OBJECT
 62
     7
100
AcDbLine
 10
5.137903049054374
 20
6.842116268656033
 30
0.0
 11
5.091451325441648
 21
6.842116268656033
 31
0.0
  0
LINE
  5
46F8
330
1E
100
AcDbEntity
  8
OBJECT
 62
     7
100
AcDbLine
 10
5.137903049054374
 20
6.962594354680998
 30
0.0
 11
5.091451325441648
 21
6.962594354680998
 31
0.0
  0
LINE
  5
46FB
330
1E
100
AcDbEntity
  8
OBJECT
 62
     7
100
AcDbLine
 10
5.204500331088698
 20
6.862195949660193
 30
0.0
 11
5.204500331088698
 21
6.942514673676841
 31
0.0
  0
ARC
  5
46FC
330
1E
100
AcDbEntity
  8
OBJECT
 62
     7
100
AcDbCircle
 10
5.137903049054374
 20
6.842116268656033
 30
0.0
 40
0.1204780860249682
100
AcDbArc
 50
56.44269179999996
 51
90.0
  0
ARC
  5
46FE
330
1E
100
AcDbEntity
  8
OBJECT
 62
     7
100
AcDbCircle
 10
5.137903049054374
 20
6.962594354680998
 30
0.0
 40
0.1204780860249682
100
AcDbArc
 50
270.0
 51
303.557312
  0
ARC
  5
46FF
330
1E
100
AcDbEntity
  8
OBJECT
 62
     7
100
AcDbCircle
 10
5.137903049054374
 20
6.721638182631066
 30
0.0
 40
0.1204780860249682
100
AcDbArc
 50
56.44263080000001
 51
90.0
  0
LINE
  5
4703
330
1E
100
AcDbEntity
  8
OBJECT
 62
     7
100
AcDbLine
 10
10.77741211047751
 20
6.736601435786951
 30
0.0
 11
10.77741211047751
 21
6.814302492738775
 31
0.0
  0
LINE
  5
4704
330
1E
100
AcDbEntity
  8
OBJECT
 62
     7
100
AcDbLine
 10
10.44718261843224
 20
6.814302492738775
 30
0.0
 11
10.44718261843224
 21
6.736601435786951
 31
0.0
  0
LINE
  5
4705
330
1E
100
AcDbEntity
  8
OBJECT
 62
     7
100
AcDbLine
 10
10.11695312638697
 20
6.736601435786951
 30
0.0
 11
10.11695312638697
 21
6.814302492738775
 31
0.0
  0
ARC
  5
472D
330
1E
100
AcDbEntity
  8
OBJECT
 62
     7
100
AcDbCircle
 10
10.3827564024404
 20
6.833727756976733
 30
0.0
 40
0.1165515854277412
100
AcDbArc
 50
270.0
 51
303.557312
  0
LINE
  5
472E
330
1E
100
AcDbEntity
  8
OBJECT
 62
     7
100
AcDbLine
 10
10.19466544610701
 20
6.662583226337154
 30
0.0
 11
10.69972231629389
 21
6.662583226337154
 31
0.0
  0
LINE
  5
4731
330
1E
100
AcDbEntity
  8
OBJECT
 62
     7
100
AcDbLine
 10
10.17522891910084
 20
6.717176171548993
 30
0.0
 11
10.71913631776363
 21
6.717176171548993
 31
0.0
  0
LINE
  5
4733
330
1E
100
AcDbEntity
  8
OBJECT
 62
     7
100
AcDbLine
 10
10.19466544610701
 20
6.662583226337154
 30
0.0
 11
10.19466544610701
 21
6.717176171548993
 31
0.0
  0
LINE
  5
4734
330
1E
100
AcDbEntity
  8
OBJECT
 62
     7
100
AcDbLine
 10
10.17522891910084
 20
6.623728843888819
 30
0.0
 11
10.17522891910084
 21
6.717176171548993
 31
0.0
  0
ARC
  5
4737
330
1E
100
AcDbEntity
  8
OBJECT
 62
     7
100
AcDbCircle
 10
10.18137875185078
 20
6.833727756976733
 30
0.0
 40
0.1165515854277412
100
AcDbArc
 50
236.4427032000001
 51
270.0
  0
LINE
  5
4738
330
1E
100
AcDbEntity
  8
OBJECT
 62
     7
100
AcDbLine
 10
10.17524018186905
 20
6.623732697861241
 30
0.0
 11
10.19466544610701
 21
6.662583226337154
 31
0.0
  0
LINE
  5
473A
330
1E
100
AcDbEntity
  8
OBJECT
 62
     7
100
AcDbLine
 10
10.71913631776363
 20
6.623728843888819
 30
0.0
 11
10.71913631776363
 21
6.717176171548993
 31
0.0
  0
LINE
  5
473B
330
1E
100
AcDbEntity
  8
OBJECT
 62
     7
100
AcDbLine
 10
10.69972231629389
 20
6.662583226337154
 30
0.0
 11
10.69972231629389
 21
6.717176171548993
 31
0.0
  0
LINE
  5
473C
330
1E
100
AcDbEntity
  8
OBJECT
 62
     7
100
AcDbLine
 10
10.71914758053184
 20
6.623732697861241
 30
0.0
 11
10.69972231629389
 21
6.662583226337154
 31
0.0
  0
ARC
  5
473F
330
1E
100
AcDbEntity
  8
OBJECT
 62
     7
100
AcDbCircle
 10
10.71298589448567
 20
6.833727756976733
 30
0.0
 40
0.1165515854277412
100
AcDbArc
 50
270.0
 51
303.557312
  0
ARC
  5
4740
330
1E
100
AcDbEntity
  8
OBJECT
 62
     7
100
AcDbCircle
 10
10.51160824389605
 20
6.833727756976733
 30
0.0
 40
0.1165515854277412
100
AcDbArc
 50
236.4427032000001
 51
270.0
  0
ARC
  5
474D
330
1E
100
AcDbEntity
  8
OBJECT
 62
     7
100
AcDbCircle
 10
10.3827564024404
 20
6.833727756976733
 30
0.0
 40
0.1165515854277412
100
AcDbArc
 50
56.44269179999996
 51
90.0
  0
ARC
  5
4752
330
1E
100
AcDbEntity
  8
OBJECT
 62
     7
100
AcDbCircle
 10
10.3827564024404
 20
6.717176171548993
 30
0.0
 40
0.1165515854277412
100
AcDbArc
 50
56.44263080000001
 51
90.0
  0
ARC
  5
4753
330
1E
100
AcDbEntity
  8
OBJECT
 62
     7
100
AcDbCircle
 10
10.3827564024404
 20
6.950279342404471
 30
0.0
 40
0.1165515854277412
100
AcDbArc
 50
270.0
 51
303.557312
  0
LINE
  5
4754
330
1E
100
AcDbEntity
  8
OBJECT
 62
     7
100
AcDbLine
 10
10.18137875185078
 20
6.950279342404471
 30
0.0
 11
10.71298589448567
 21
6.950279342404471
 31
0.0
  0
LINE
  5
4755
330
1E
100
AcDbEntity
  8
OBJECT
 62
     7
100
AcDbLine
 10
10.17522891910084
 20
6.833727756976733
 30
0.0
 11
10.71913631776363
 21
6.833727756976733
 31
0.0
  0
ARC
  5
4758
330
1E
100
AcDbEntity
  8
OBJECT
 62
     7
100
AcDbCircle
 10
10.18137875185078
 20
6.833727756976733
 30
0.0
 40
0.1165515854277412
100
AcDbArc
 50
90.0
 51
123.5572967999999
  0
LINE
  5
4759
330
1E
100
AcDbEntity
  8
OBJECT
 62
     7
100
AcDbLine
 10
10.11695312638697
 20
6.853153021214691
 30
0.0
 11
10.11695312638697
 21
6.930854078166518
 31
0.0
  0
ARC
  5
475B
330
1E
100
AcDbEntity
  8
OBJECT
 62
     7
100
AcDbCircle
 10
10.18137875185078
 20
6.717176171548993
 30
0.0
 40
0.1165515854277412
100
AcDbArc
 50
90.0
 51
123.5574036
  0
ARC
  5
475C
330
1E
100
AcDbEntity
  8
OBJECT
 62
     7
100
AcDbCircle
 10
10.18137875185078
 20
6.950279342404471
 30
0.0
 40
0.1165515854277412
100
AcDbArc
 50
236.4427032000001
 51
270.0
  0
LINE
  5
4760
330
1E
100
AcDbEntity
  8
OBJECT
 62
     7
100
AcDbLine
 10
10.77741211047751
 20
6.853153021214691
 30
0.0
 11
10.77741211047751
 21
6.930854078166518
 31
0.0
  0
ARC
  5
4761
330
1E
100
AcDbEntity
  8
OBJECT
 62
     7
100
AcDbCircle
 10
10.71298589448567
 20
6.833727756976733
 30
0.0
 40
0.1165515854277412
100
AcDbArc
 50
56.44269179999996
 51
90.0
  0
ARC
  5
4765
330
1E
100
AcDbEntity
  8
OBJECT
 62
     7
100
AcDbCircle
 10
10.51160824389605
 20
6.833727756976733
 30
0.0
 40
0.1165515854277412
100
AcDbArc
 50
90.0
 51
123.5572967999999
  0
LINE
  5
4766
330
1E
100
AcDbEntity
  8
OBJECT
 62
     7
100
AcDbLine
 10
10.44718261843224
 20
6.930854078166518
 30
0.0
 11
10.44718261843224
 21
6.853153021214691
 31
0.0
  0
ARC
  5
4768
330
1E
100
AcDbEntity
  8
OBJECT
 62
     7
100
AcDbCircle
 10
10.51160824389605
 20
6.717176171548993
 30
0.0
 40
0.1165515854277412
100
AcDbArc
 50
90.0
 51
123.5574036
  0
ARC
  5
4769
330
1E
100
AcDbEntity
  8
OBJECT
 62
     7
100
AcDbCircle
 10
10.51160824389605
 20
6.950279342404471
 30
0.0
 40
0.1165515854277412
100
AcDbArc
 50
236.4427032000001
 51
270.0
  0
ARC
  5
476A
330
1E
100
AcDbEntity
  8
OBJECT
 62
     7
100
AcDbCircle
 10
10.71298589448567
 20
6.950279342404471
 30
0.0
 40
0.1165515854277412
100
AcDbArc
 50
270.0
 51
303.557312
  0
ARC
  5
476B
330
1E
100
AcDbEntity
  8
OBJECT
 62
     7
100
AcDbCircle
 10
10.71298589448567
 20
6.717176171548993
 30
0.0
 40
0.1165515854277412
100
AcDbArc
 50
56.44263080000001
 51
90.0
  0
LINE
  5
48D2
330
1E
100
AcDbEntity
  8
DIM
100
AcDbLine
 10
5.866705225853169
 20
5.574844175914384
 30
0.0
 11
6.303750054362417
 21
4.962466704778939
 31
0.0
1001
ACAD
1000
DSTYLE
1002
{
1070
   147
1040
0.09
1070
    77
1070
     0
1002
}
  0
LINE
  5
48D3
330
1E
100
AcDbEntity
  8
DIM
 62
     1
100
AcDbLine
 10
6.916098030137105
 20
5.117365965374151
 30
0.0
 11
6.916098030137105
 21
4.267721424668447
 31
0.0
  0
LINE
  5
48D4
330
1E
100
AcDbEntity
  8
DIM
 62
     1
100
AcDbLine
 10
6.311636320066123
 20
5.038338296357184
 30
0.0
 11
6.311636320066123
 21
4.267721424668447
 31
0.0
  0
LINE
  5
48D5
330
1E
100
AcDbEntity
  8
DIM
 62
     1
100
AcDbLine
 10
5.730867480531676
 20
5.587507406234904
 30
0.0
 11
5.730867480531676
 21
4.690684558888346
 31
0.0
  0
LINE
  5
48D6
330
1E
100
AcDbEntity
  8
DIM
 62
     1
100
AcDbLine
 10
4.727368403990258
 20
5.587507406234904
 30
0.0
 11
4.727368403990258
 21
4.690684558888346
 31
0.0
  0
LINE
  5
48D7
330
1E
100
AcDbEntity
  8
DIM
 62
     1
100
AcDbLine
 10
4.146610263169567
 20
5.077846101974538
 30
0.0
 11
4.146610263169567
 21
4.267083619817856
 31
0.0
  0
LINE
  5
48D8
330
1E
100
AcDbEntity
  8
DIM
 62
     1
100
AcDbLine
 10
6.311636320066128
 20
5.038338296357184
 30
0.0
 11
6.311636320066128
 21
4.267083619817856
 31
0.0
  0
LINE
  5
48D9
330
1E
100
AcDbEntity
  8
DIM
100
AcDbLine
 10
6.472619811731185
 20
4.725850165186241
 30
0.0
 11
6.864025966464261
 21
4.725850165186241
 31
0.0
1001
ACAD
1000
DSTYLE
1002
{
1070
   147
1040
0.09
1070
    77
1070
     0
1002
}
  0
MTEXT
  5
48DA
330
1E
100
AcDbEntity
  8
DIM
 62
     7
100
AcDbMText
 10
6.649055733891473
 20
4.330221424668447
 30
0.0
 40
0.09
 41
0.0
 71
     5
 72
     1
  1
15\P[.59]
 73
     1
 44
1.0
1001
ACAD
1000
MTEXTBEGIN
1070
    73
1070
     1
1070
    44
1040
1.0
1070
    74
1070
     0
1000
MTEXTEND
  0
MTEXT
  5
48DB
330
1E
100
AcDbEntity
  8
DIM
 62
     7
100
AcDbMText
 10
5.229117942260967
 20
4.753184558888346
 30
0.0
 40
0.09
 41
0.0
 71
     5
 72
     1
  1
25.4%%P0.15\P[1.00±0.59]
 73
     1
 44
1.0
1001
ACAD
1000
MTEXTBEGIN
1070
    73
1070
     1
1070
    44
1040
1.0
1070
    74
1070
     0
1000
MTEXTEND
  0
MTEXT
  5
48DC
330
1E
100
AcDbEntity
  8
DIM
 62
     7
100
AcDbMText
 10
5.229123291617847
 20
4.329583619817856
 30
0.0
 40
0.09
 41
0.0
 71
     5
 72
     1
  1
55\P[2.165]
 73
     1
 44
1.0
1001
ACAD
1000
MTEXTBEGIN
1070
    73
1070
     1
1070
    44
1040
1.0
1070
    74
1070
     0
1000
MTEXTEND
  0
LINE
  5
48DD
330
1E
100
AcDbEntity
  8
DIM
 62
     1
100
AcDbLine
 10
4.577368403990258
 20
4.753184558888346
 30
0.0
 11
4.427368403990258
 21
4.753184558888346
 31
0.0
  0
LINE
  5
48DE
330
1E
100
AcDbEntity
  8
DIM
 62
     1
100
AcDbLine
 10
4.296610263169567
 20
4.329583619817856
 30
0.0
 11
4.965783220655233
 21
4.329583619817856
 31
0.0
  0
SOLID
  5
48DF
330
1E
100
AcDbEntity
  8
DIM
 62
     1
100
AcDbTrace
 10
4.296610263169567
 20
4.354583619817857
 30
0.0
 11
4.296610263169567
 21
4.304583619817856
 31
0.0
 12
4.146610263169567
 22
4.329583619817856
 32
0.0
 13
4.146610263169567
 23
4.329583619817856
 33
0.0
  0
SOLID
  5
48E0
330
1E
100
AcDbEntity
  8
DIM
 62
     1
100
AcDbTrace
 10
4.577368403990258
 20
4.778184558888346
 30
0.0
 11
4.577368403990258
 21
4.728184558888345
 31
0.0
 12
4.727368403990258
 22
4.753184558888346
 32
0.0
 13
4.727368403990258
 23
4.753184558888346
 33
0.0
  0
SOLID
  5
48E1
330
1E
100
AcDbEntity
  8
DIM
 62
     1
100
AcDbTrace
 10
5.880867480531676
 20
4.778184558888346
 30
0.0
 11
5.880867480531676
 21
4.728184558888345
 31
0.0
 12
5.730867480531676
 22
4.753184558888346
 32
0.0
 13
5.730867480531676
 23
4.753184558888346
 33
0.0
  0
LINE
  5
48E2
330
1E
100
AcDbEntity
  8
DIM
 62
     1
100
AcDbLine
 10
6.161636320066127
 20
4.329583619817856
 30
0.0
 11
5.492463310573969
 21
4.329583619817856
 31
0.0
  0
SOLID
  5
48E3
330
1E
100
AcDbEntity
  8
DIM
 62
     1
100
AcDbTrace
 10
6.161636320066127
 20
4.354583619817857
 30
0.0
 11
6.161636320066127
 21
4.304583619817856
 31
0.0
 12
6.311636320066128
 22
4.329583619817856
 32
0.0
 13
6.311636320066128
 23
4.329583619817856
 33
0.0
  0
LINE
  5
48E4
330
1E
100
AcDbEntity
  8
DIM
 62
     1
100
AcDbLine
 10
5.880867480531676
 20
4.753184558888346
 30
0.0
 11
6.030867480531676
 21
4.753184558888346
 31
0.0
  0
LINE
  5
48E5
330
1E
100
AcDbEntity
  8
DIM
100
AcDbLine
 10
6.342052921573359
 20
4.908797581087712
 30
0.0
 11
6.472619811731185
 21
4.725850165186241
 31
0.0
1001
ACAD
1000
DSTYLE
1002
{
1070
   147
1040
0.09
1070
    77
1070
     0
1002
}
  0
MTEXT
  5
48E6
330
1E
100
AcDbEntity
  8
DIM
 62
     7
100
AcDbMText
 10
7.938382125221722
 20
4.663870473929925
 30
0.0
 40
0.09
 41
0.0
 71
     5
 72
     1
  1
TOW 4.3±0.1\P[.169±.039]\PMOUNTING HOLES
 73
     1
 44
1.0
1001
ACAD
1000
MTEXTBEGIN
1070
    73
1070
     1
1070
    44
1040
1.0
1070
    74
1070
     0
1000
MTEXTEND
  0
LINE
  5
48E7
330
1E
100
AcDbEntity
  8
DIM
100
AcDbLine
 10
6.976707167042093
 20
4.725850165186241
 30
0.0
 11
7.495445424960678
 21
4.725850165186241
 31
0.0
1001
ACAD
1000
DSTYLE
1002
{
1070
   147
1040
0.09
1070
    77
1070
     0
1002
}
  0
LINE
  5
48E8
330
1E
100
AcDbEntity
  8
DIM
 62
     1
100
AcDbLine
 10
7.22204862051945
 20
4.330221424668447
 30
0.0
 11
7.066098030137105
 21
4.330221424668447
 31
0.0
  0
SOLID
  5
48E9
330
1E
100
AcDbEntity
  8
DIM
 62
     1
100
AcDbTrace
 10
7.066098030137105
 20
4.355221424668448
 30
0.0
 11
7.066098030137105
 21
4.305221424668447
 31
0.0
 12
6.916098030137105
 22
4.330221424668447
 32
0.0
 13
6.916098030137105
 23
4.330221424668447
 33
0.0
  0
MTEXT
  5
48EA
330
1E
100
AcDbEntity
  8
DIM
 62
     7
100
AcDbMText
 10
8.541427054111274
 20
4.740298748050694
 30
0.0
 40
0.09
 41
0.0
 71
     5
 72
     1
  1
DIA
 73
     1
 44
1.0
1001
ACAD
1000
MTEXTBEGIN
1070
    73
1070
     1
1070
    44
1040
1.0
1070
    74
1070
     0
1000
MTEXTEND
  0
LINE
  5
48EB
330
1E
100
AcDbEntity
  8
DIM
 62
     1
100
AcDbLine
 10
4.127631797327595
 20
6.621898460431195
 30
0.0
 11
3.662717586160283
 21
6.621898460431194
 31
0.0
  0
LINE
  5
48EC
330
1E
100
AcDbEntity
  8
DIM
 62
     1
100
AcDbLine
 10
4.127631797327595
 20
7.128747986022242
 30
0.0
 11
3.662717586160283
 21
7.128747986022244
 31
0.0
  0
LINE
  5
48EF
330
1E
100
AcDbEntity
  8
DIM
 62
     1
100
AcDbLine
 10
4.099100000113331
 20
5.002080840096097
 30
0.0
 11
2.210067848420572
 21
5.002080840096098
 31
0.0
  0
LINE
  5
48F0
330
1E
100
AcDbEntity
  8
DIM
 62
     1
100
AcDbLine
 10
4.462353283329253
 20
5.792236952443041
 30
0.0
 11
2.210067848420571
 21
5.792236952443042
 31
0.0
  0
LINE
  5
48F1
330
1E
100
AcDbEntity
  8
DIM
 62
     1
100
AcDbLine
 10
4.143371971595589
 20
5.08108439354851
 30
0.0
 11
2.984490731931387
 21
5.08108439354851
 31
0.0
  0
LINE
  5
48F2
330
1E
100
AcDbEntity
  8
DIM
 62
     1
100
AcDbLine
 10
4.462353283329253
 20
5.792236952443041
 30
0.0
 11
2.984490731931387
 21
5.792236952443041
 31
0.0
  0
LINE
  5
48F3
330
1E
100
AcDbEntity
  8
DIM
 62
     1
100
AcDbLine
 10
4.111759125347392
 20
5.594696114898809
 30
0.0
 11
3.661327504851286
 21
5.594696114898809
 31
0.0
  0
LINE
  5
48F4
330
1E
100
AcDbEntity
  8
DIM
 62
     1
100
AcDbLine
 10
4.462353283329253
 20
5.792236952443041
 30
0.0
 11
3.661327504851286
 21
5.792236952443041
 31
0.0
  0
MTEXT
  5
48F5
330
1E
100
AcDbEntity
  8
DIM
 62
     7
100
AcDbMText
 10
3.725217586160282
 20
6.85488174855994
 30
0.0
 40
0.09
 41
0.0
 71
     5
 72
     1
  1
12.5\P[.492]
 73
     1
 44
1.0
1001
ACAD
1000
MTEXTBEGIN
1070
    73
1070
     1
1070
    44
1040
1.0
1070
    74
1070
     0
1000
MTEXTEND
  0
MTEXT
  5
48F6
330
1E
100
AcDbEntity
  8
DIM
 62
     7
100
AcDbMText
 10
3.725217586160282
 20
6.207067706437118
 30
0.0
 40
0.09
 41
0.0
 71
     5
 72
     1
  1
21\P[.827]
 73
     1
 44
1.0
1001
ACAD
1000
MTEXTBEGIN
1070
    73
1070
     1
1070
    44
1040
1.0
1070
    74
1070
     0
1000
MTEXTEND
  0
LINE
  5
48F7
330
1E
100
AcDbEntity
  8
DIM
 62
     1
100
AcDbLine
 10
4.462353283329253
 20
5.792236952443041
 30
0.0
 11
3.662717586160283
 21
5.792236952443041
 31
0.0
  0
LINE
  5
48F8
330
1E
100
AcDbEntity
  8
DIM
 62
     1
100
AcDbLine
 10
4.462353283329253
 20
5.792236952443041
 30
0.0
 11
2.98198849196352
 21
5.792236952443042
 31
0.0
  0
MTEXT
  5
48FA
330
1E
100
AcDbEntity
  8
DIM
 62
     7
100
AcDbMText
 10
2.561614581448103
 20
5.469306808168457
 30
0.0
 40
0.09
 41
0.0
 71
     5
 72
     1
  1
MAX
 73
     1
 44
1.0
1001
ACAD
1000
MTEXTBEGIN
1070
    73
1070
     1
1070
    44
1040
1.0
1070
    74
1070
     0
1000
MTEXTEND
  0
MTEXT
  5
48FB
330
1E
100
AcDbEntity
  8
DIM
 62
     7
100
AcDbMText
 10
2.267931990442959
 20
5.39715889626957
 30
0.0
 40
0.09
 41
0.0
 71
     5
 72
     1
  1
22\P[.866]
 73
     1
 44
1.0
1001
ACAD
1000
MTEXTBEGIN
1070
    73
1070
     1
1070
    44
1040
1.0
1070
    74
1070
     0
1000
MTEXTEND
  0
LINE
  5
48FC
330
1E
100
AcDbEntity
  8
DIM
 62
     1
100
AcDbLine
 10
2.272567848420571
 20
5.152080840096099
 30
0.0
 11
2.272567848420571
 21
5.26215889626957
 31
0.0
  0
SOLID
  5
48FD
330
1E
100
AcDbEntity
  8
DIM
 62
     1
100
AcDbTrace
 10
2.247567848420572
 20
5.152080840096099
 30
0.0
 11
2.297567848420571
 21
5.152080840096099
 31
0.0
 12
2.272567848420571
 22
5.002080840096098
 32
0.0
 13
2.272567848420571
 23
5.002080840096098
 33
0.0
  0
LINE
  5
48FE
330
1E
100
AcDbEntity
  8
DIM
 62
     1
100
AcDbLine
 10
2.272567848420571
 20
5.642236952443042
 30
0.0
 11
2.272567848420571
 21
5.53215889626957
 31
0.0
  0
SOLID
  5
48FF
330
1E
100
AcDbEntity
  8
DIM
 62
     1
100
AcDbTrace
 10
2.247567848420572
 20
5.642236952443042
 30
0.0
 11
2.297567848420571
 21
5.642236952443042
 31
0.0
 12
2.272567848420571
 22
5.792236952443042
 32
0.0
 13
2.272567848420571
 23
5.792236952443042
 33
0.0
  0
SOLID
  5
4900
330
1E
100
AcDbEntity
  8
DIM
 62
     1
100
AcDbTrace
 10
3.700217586160283
 20
5.942236952443042
 30
0.0
 11
3.750217586160283
 21
5.942236952443042
 31
0.0
 12
3.725217586160283
 22
5.792236952443041
 32
0.0
 13
3.725217586160283
 23
5.792236952443041
 33
0.0
  0
SOLID
  5
4901
330
1E
100
AcDbEntity
  8
DIM
 62
     1
100
AcDbTrace
 10
3.019488491963519
 20
5.942236952443042
 30
0.0
 11
3.069488491963519
 21
5.942236952443042
 31
0.0
 12
3.04448849196352
 22
5.792236952443042
 32
0.0
 13
3.04448849196352
 23
5.792236952443042
 33
0.0
  0
MTEXT
  5
4902
330
1E
100
AcDbEntity
  8
DIM
 62
     7
100
AcDbMText
 10
3.043952628311528
 20
5.445144976770931
 30
0.0
 40
0.09
 41
0.0
 71
     5
 72
     1
  1
18.3\P[.720]
 73
     1
 44
1.0
1001
ACAD
1000
MTEXTBEGIN
1070
    73
1070
     1
1070
    44
1040
1.0
1070
    74
1070
     0
1000
MTEXTEND
  0
SOLID
  5
4903
330
1E
100
AcDbEntity
  8
DIM
 62
     1
100
AcDbTrace
 10
3.021990731931387
 20
5.231084393548511
 30
0.0
 11
3.071990731931387
 21
5.231084393548511
 31
0.0
 12
3.046990731931387
 22
5.08108439354851
 32
0.0
 13
3.046990731931387
 23
5.08108439354851
 33
0.0
  0
LINE
  5
4904
330
1E
100
AcDbEntity
  8
DIM
 62
     1
100
AcDbLine
 10
3.046990731931387
 20
5.285344301830594
 30
0.0
 11
3.046990731931387
 21
5.231084393548511
 31
0.0
  0
LINE
  5
4905
330
1E
100
AcDbEntity
  8
DIM
 62
     1
100
AcDbLine
 10
3.046990731931387
 20
5.642236952443041
 30
0.0
 11
3.046990731931387
 21
5.581739573692313
 31
0.0
  0
SOLID
  5
4906
330
1E
100
AcDbEntity
  8
DIM
 62
     1
100
AcDbTrace
 10
3.021990731931387
 20
5.642236952443041
 30
0.0
 11
3.071990731931387
 21
5.642236952443041
 31
0.0
 12
3.046990731931387
 22
5.792236952443041
 32
0.0
 13
3.046990731931387
 23
5.792236952443041
 33
0.0
  0
LINE
  5
4907
330
1E
100
AcDbEntity
  8
DIM
 62
     1
100
AcDbLine
 10
3.723827504851286
 20
5.444696114898809
 30
0.0
 11
3.723827504851286
 21
5.294696114898809
 31
0.0
  0
MTEXT
  5
4908
330
1E
100
AcDbEntity
  8
DIM
 62
     7
100
AcDbMText
 10
3.453827504851285
 20
5.29469611489881
 30
0.0
 40
0.09
 41
0.0
 71
     5
 72
     1
  1
5\P[.197]
 73
     1
 44
1.0
1001
ACAD
1000
MTEXTBEGIN
1070
    73
1070
     1
1070
    44
1040
1.0
1070
    74
1070
     0
1000
MTEXTEND
  0
LINE
  5
4909
330
1E
100
AcDbEntity
  8
DIM
 62
     1
100
AcDbLine
 10
3.723827504851286
 20
5.294696114898809
 30
0.0
 11
3.573827504851286
 21
5.294696114898809
 31
0.0
  0
SOLID
  5
490A
330
1E
100
AcDbEntity
  8
DIM
 62
     1
100
AcDbTrace
 10
3.698827504851286
 20
5.444696114898809
 30
0.0
 11
3.748827504851286
 21
5.444696114898809
 31
0.0
 12
3.723827504851286
 22
5.594696114898809
 32
0.0
 13
3.723827504851286
 23
5.594696114898809
 33
0.0
  0
MTEXT
  5
490B
330
1E
100
AcDbEntity
  8
DIM
 62
     7
100
AcDbMText
 10
3.044488491963519
 20
6.693227892677452
 30
0.0
 40
0.09
 41
0.0
 71
     5
 72
     1
  1
47.4%%P.8mm\P[1.866±.031]
 73
     1
 44
1.0
1001
ACAD
1000
MTEXTBEGIN
1070
    73
1070
     1
1070
    44
1040
1.0
1070
    74
1070
     0
1000
MTEXTEND
  0
LINE
  5
490C
330
1E
100
AcDbEntity
  8
DIM
 62
     1
100
AcDbLine
 10
3.04448849196352
 20
5.942236952443042
 30
0.0
 11
3.04448849196352
 21
6.523958866139947
 31
0.0
  0
LINE
  5
490D
330
1E
100
AcDbEntity
  8
DIM
 62
     1
100
AcDbLine
 10
3.725217586160283
 20
5.942236952443042
 30
0.0
 11
3.725217586160283
 21
6.048911844842206
 31
0.0
  0
SOLID
  5
490E
330
1E
100
AcDbEntity
  8
DIM
 62
     1
100
AcDbTrace
 10
3.700217586160283
 20
6.471898460431193
 30
0.0
 11
3.750217586160283
 21
6.471898460431193
 31
0.0
 12
3.725217586160283
 22
6.621898460431194
 32
0.0
 13
3.725217586160283
 23
6.621898460431194
 33
0.0
  0
SOLID
  5
490F
330
1E
100
AcDbEntity
  8
DIM
 62
     1
100
AcDbTrace
 10
3.700217586160283
 20
6.471898460431193
 30
0.0
 11
3.750217586160283
 21
6.471898460431193
 31
0.0
 12
3.725217586160284
 22
6.621898460431194
 32
0.0
 13
3.725217586160284
 23
6.621898460431194
 33
0.0
  0
LINE
  5
4910
330
1E
100
AcDbEntity
  8
DIM
 62
     1
100
AcDbLine
 10
3.725217586160283
 20
6.471898460431193
 30
0.0
 11
3.725217586160283
 21
6.377472585235905
 31
0.0
  0
LINE
  5
4911
330
1E
100
AcDbEntity
  8
DIM
 62
     1
100
AcDbLine
 10
3.725217586160283
 20
6.471898460431193
 30
0.0
 11
3.725217586160283
 21
6.37911713160646
 31
0.0
  0
MTEXT
  5
4912
330
1E
100
AcDbEntity
  8
DIM
 62
     7
100
AcDbMText
 10
2.350044066250168
 20
8.080440979946871
 30
0.0
 40
0.09
 41
0.0
 71
     5
 72
     1
  1
1.5mm\P[.059]
 73
     1
 44
1.0
1001
ACAD
1000
MTEXTBEGIN
1070
    73
1070
     1
1070
    44
1040
1.0
1070
    74
1070
     0
1000
MTEXTEND
  0
SOLID
  5
4915
330
1E
100
AcDbEntity
  8
DIM
 62
     1
100
AcDbTrace
 10
3.023380761233893
 20
7.930440979946872
 30
0.0
 11
3.073380761233893
 21
7.930440979946872
 31
0.0
 12
3.048380761233893
 22
7.780440979946871
 32
0.0
 13
3.048380761233893
 23
7.780440979946871
 33
0.0
  0
SOLID
  5
4917
330
1E
100
AcDbEntity
  8
DIM
 62
     1
100
AcDbTrace
 10
3.01948849196352
 20
7.571179271520843
 30
0.0
 11
3.069488491963519
 21
7.571179271520843
 31
0.0
 12
3.04448849196352
 22
7.721179271520844
 32
0.0
 13
3.04448849196352
 23
7.721179271520844
 33
0.0
  0
LINE
  5
4918
330
1E
100
AcDbEntity
  8
DIM
 62
     1
100
AcDbLine
 10
3.048380761233893
 20
7.571179271520843
 30
0.0
 11
3.048380761233893
 21
6.85638803499313
 31
0.0
  0
MTEXT
  5
4919
330
1E
100
AcDbEntity
  8
DIM
 62
     7
100
AcDbMText
 10
2.723869974710032
 20
8.092308860068051
 30
0.0
 40
0.09
 41
0.0
 71
     5
 72
     1
  1
MAX
 73
     1
 44
1.0
1001
ACAD
1000
MTEXTBEGIN
1070
    73
1070
     1
1070
    44
1040
1.0
1070
    74
1070
     0
1000
MTEXTEND
  0
LINE
  5
491A
330
1E
100
AcDbEntity
  8
DIM
 62
     1
100
AcDbLine
 10
3.048380761233893
 20
7.930440979946872
 30
0.0
 11
3.048380761233893
 21
8.080440979946871
 31
0.0
  0
LINE
  5
491B
330
1E
100
AcDbEntity
  8
DIM
 62
     1
100
AcDbLine
 10
2.898380761233893
 20
8.080440979946871
 30
0.0
 11
3.048380761233893
 21
8.080440979946871
 31
0.0
  0
LINE
  5
491C
330
1E
100
AcDbEntity
  8
DIM
 62
     1
100
AcDbLine
 10
3.725217586160283
 20
7.278747986022244
 30
0.0
 11
3.725217586160283
 21
7.428747986022243
 31
0.0
  0
SOLID
  5
491D
330
1E
100
AcDbEntity
  8
DIM
 62
     1
100
AcDbTrace
 10
3.700217586160283
 20
7.278747986022244
 30
0.0
 11
3.750217586160283
 21
7.278747986022244
 31
0.0
 12
3.725217586160283
 22
7.128747986022244
 32
0.0
 13
3.725217586160283
 23
7.128747986022244
 33
0.0
  0
LINE
  5
491E
330
1E
100
AcDbEntity
  8
DIM
 62
     1
100
AcDbLine
 10
6.566554070885622
 20
8.688723909248235
 30
0.0
 11
6.433977059433862
 21
8.688723909248235
 31
0.0
  0
LINE
  5
491F
330
1E
100
AcDbEntity
  8
DIM
 62
     1
100
AcDbLine
 10
6.012100315144991
 20
5.792236952443041
 30
0.0
 11
7.533021733588576
 21
5.79223695244304
 31
0.0
  0
LINE
  5
4920
330
1E
100
AcDbEntity
  8
DIM
 62
     1
100
AcDbLine
 10
6.295116793607895
 20
6.542882849196496
 30
0.0
 11
7.531917011856918
 21
6.542882849196495
 31
0.0
  0
LINE
  5
4921
330
1E
100
AcDbEntity
  8
OBJECT
 62
     7
100
AcDbLine
 10
6.323480945876889
 20
5.792236952443041
 30
0.0
 11
6.639543390815678
 21
5.792236952443041
 31
0.0
  0
LINE
  5
4922
330
1E
100
AcDbEntity
  8
OBJECT
 62
     7
100
AcDbLine
 10
6.323480945876889
 20
5.002080840096097
 30
0.0
 11
6.639543390815678
 21
5.002080840096097
 31
0.0
  0
LINE
  5
4923
330
1E
100
AcDbEntity
  8
CENTER
 62
     3
100
AcDbLine
 10
6.984287617352895
 20
5.397146838487289
 30
0.0
 11
6.089452938852147
 21
5.397146838487289
 31
0.0
  0
LINE
  5
4924
330
1E
100
AcDbEntity
  8
DIM
 62
     1
100
AcDbLine
 10
6.283977059433862
 20
6.230058695831695
 30
0.0
 11
6.283977059433862
 21
7.572742805885276
 31
0.0
  0
LINE
  5
4925
330
1E
100
AcDbEntity
  8
DIM
 62
     1
100
AcDbLine
 10
5.730867480531676
 20
6.059903813792386
 30
0.0
 11
5.730867480531676
 21
7.338623710399556
 31
0.0
  0
LINE
  5
4926
330
1E
100
AcDbEntity
  8
DIM
 62
     1
100
AcDbLine
 10
5.730867480531676
 20
6.059903813792386
 30
0.0
 11
5.730867480531676
 21
7.338623710399556
 31
0.0
  0
LINE
  5
4927
330
1E
100
AcDbEntity
  8
DIM
 62
     1
100
AcDbLine
 10
6.283977059433858
 20
6.230058695831695
 30
0.0
 11
6.283977059433858
 21
7.589237118771836
 31
0.0
  0
LINE
  5
4928
330
1E
100
AcDbEntity
  8
DIM
 62
     1
100
AcDbLine
 10
4.174259125347392
 20
6.230058695831695
 30
0.0
 11
4.174259125347392
 21
9.180112060422601
 31
0.0
  0
LINE
  5
4929
330
1E
100
AcDbEntity
  8
CENTER
 62
     3
100
AcDbLine
 10
4.810335791383388
 20
8.752755515962938
 30
0.0
 11
4.810335791383388
 21
6.329288046445904
 31
0.0
  0
LINE
  5
492C
330
1E
100
AcDbEntity
  8
DIM
 62
     1
100
AcDbLine
 10
5.670659390965909
 20
5.002080840096097
 30
0.0
 11
4.780572631010848
 21
5.002080840096097
 31
0.0
  0
LINE
  5
492D
330
1E
100
AcDbEntity
  8
OBJECT
 62
     7
100
AcDbLine
 10
6.264223156625188
 20
6.187312598640369
 30
0.0
 11
4.194013028156066
 21
6.187312598640369
 31
0.0
  0
LINE
  5
492E
330
1E
100
AcDbEntity
  8
OBJECT
 62
     7
100
AcDbLine
 10
6.09038995763522
 20
6.207066501449043
 30
0.0
 11
4.352046510471938
 21
6.207066501449043
 31
0.0
  0
LINE
  5
492F
330
1E
100
AcDbEntity
  8
OBJECT
 62
     7
100
AcDbLine
 10
6.09038995763522
 20
6.503375043579148
 30
0.0
 11
4.352046510471938
 21
6.503375043579148
 31
0.0
  0
LINE
  5
4930
330
1E
100
AcDbEntity
  8
OBJECT
 62
     7
100
AcDbLine
 10
4.225618790654714
 20
6.542882849196496
 30
0.0
 11
6.232616793607895
 21
6.542882849196496
 31
0.0
  0
LINE
  5
4931
330
1E
100
AcDbEntity
  8
OBJECT
 62
     7
100
AcDbLine
 10
4.205871971595589
 20
5.08108439354851
 30
0.0
 11
6.291882417257454
 21
5.08108439354851
 31
0.0
  0
LINE
  5
4932
330
1E
100
AcDbEntity
  8
OBJECT
 62
     7
100
AcDbLine
 10
4.174259125347392
 20
5.594696114898809
 30
0.0
 11
6.283977059433867
 21
5.594696114898809
 31
0.0
  0
CIRCLE
  5
4933
330
1E
100
AcDbEntity
  8
OBJECT
 62
     7
100
AcDbCircle
 10
4.727368403990258
 20
5.792235142985543
 30
0.0
 40
0.1580312224693895
  0
CIRCLE
  5
4934
330
1E
100
AcDbEntity
  8
OBJECT
 62
     7
100
AcDbCircle
 10
4.727368403990258
 20
5.792235142985543
 30
0.0
 40
0.1027202906543226
  0
CIRCLE
  5
4935
330
1E
100
AcDbEntity
  8
OBJECT
 62
     7
100
AcDbCircle
 10
4.727368403990258
 20
5.792236952443041
 30
0.0
 40
0.1027202906543226
  0
CIRCLE
  5
4936
330
1E
100
AcDbEntity
  8
OBJECT
 62
     7
100
AcDbCircle
 10
4.727368403990258
 20
5.792235142985543
 30
0.0
 40
0.0849417860280775
  0
LINE
  5
4937
330
1E
100
AcDbEntity
  8
CENTER
 62
     3
100
AcDbLine
 10
4.727368403990258
 20
5.607909926199494
 30
0.0
 11
4.727368403990258
 21
5.997403813792383
 31
0.0
  0
LINE
  5
4938
330
1E
100
AcDbEntity
  8
OBJECT
 62
     7
100
AcDbLine
 10
4.97429203896902
 20
6.187312598640369
 30
0.0
 11
4.965063742520431
 21
5.633542303049385
 31
0.0
  0
LINE
  5
4939
330
1E
100
AcDbEntity
  8
OBJECT
 62
     7
100
AcDbLine
 10
4.14660558939617
 20
5.721123384327041
 30
0.0
 11
4.14660558939617
 21
6.041133836379602
 31
0.0
  0
LINE
  5
493A
330
1E
100
AcDbEntity
  8
OBJECT
 62
     7
100
AcDbLine
 10
4.174259125347392
 20
5.594696114898809
 30
0.0
 11
4.174259125347392
 21
6.167558695831695
 31
0.0
  0
LINE
  5
493B
330
1E
100
AcDbEntity
  8
OBJECT
 62
     7
100
AcDbLine
 10
4.480444618881839
 20
6.187312598640369
 30
0.0
 11
4.489672761249988
 21
5.633542303049385
 31
0.0
  0
LINE
  5
493C
330
1E
100
AcDbEntity
  8
OBJECT
 62
     7
100
AcDbLine
 10
4.146610263169571
 20
5.140346101974538
 30
0.0
 11
4.146610263169571
 21
5.977913268045597
 31
0.0
  0
LINE
  5
493D
330
1E
100
AcDbEntity
  8
DIM
 62
     1
100
AcDbLine
 10
4.664675921538041
 20
5.002080840096097
 30
0.0
 11
4.191817367691577
 21
5.002080840096097
 31
0.0
  0
LINE
  5
493E
330
1E
100
AcDbEntity
  8
CENTER
 62
     3
100
AcDbLine
 10
4.524853283329253
 20
5.792236952443041
 30
0.0
 11
4.928099720145461
 21
5.792236952443041
 31
0.0
  0
ARC
  5
493F
330
1E
100
AcDbEntity
  8
OBJECT
 62
     7
100
AcDbCircle
 10
4.205871971595589
 20
5.140346101974538
 30
0.0
 40
0.0592617084260211
100
AcDbArc
 50
180.0
 51
270.0
  0
LINE
  5
4940
330
1E
100
AcDbEntity
  8
OBJECT
 62
     7
100
AcDbLine
 10
4.14660558939617
 20
5.719138832186049
 30
0.0
 11
4.174259125347392
 21
5.719138832186049
 31
0.0
  0
ARC
  5
4941
330
1E
100
AcDbEntity
  8
OBJECT
 62
     7
100
AcDbCircle
 10
4.529175897044704
 20
5.634203920516153
 30
0.0
 40
0.0395078056173474
100
AcDbArc
 50
180.9548035
 51
270.0
  0
ARC
  5
4942
330
1E
100
AcDbEntity
  8
OBJECT
 62
     7
100
AcDbCircle
 10
4.925560760806146
 20
5.634203920516153
 30
0.0
 40
0.0395078056173474
100
AcDbArc
 50
270.0
 51
359.0451965
  0
LINE
  5
4943
330
1E
100
AcDbEntity
  8
OBJECT
 62
     7
100
AcDbLine
 10
4.454765690956923
 20
6.621898460431194
 30
0.0
 11
5.165906041939517
 21
6.621898460431194
 31
0.0
  0
LINE
  5
4944
330
1E
100
AcDbEntity
  8
OBJECT
 62
     7
100
AcDbLine
 10
4.194013028156066
 20
6.187312598640369
 30
0.0
 11
4.194013028156066
 21
6.511272867264211
 31
0.0
  0
LINE
  5
4945
330
1E
100
AcDbEntity
  8
OBJECT
 62
     7
100
AcDbLine
 10
4.312538704854588
 20
6.187300841117419
 30
0.0
 11
4.312536445008112
 21
6.542871091673547
 31
0.0
  0
LINE
  5
4946
330
1E
100
AcDbEntity
  8
OBJECT
 62
     7
100
AcDbLine
 10
4.332297431566331
 20
6.226820404257712
 30
0.0
 11
4.332292607663263
 21
6.483621140770479
 31
0.0
  0
LINE
  5
4947
330
1E
100
AcDbEntity
  8
OBJECT
 62
     7
100
AcDbLine
 10
4.14660558939617
 20
6.041133836379602
 30
0.0
 11
4.174259125347392
 21
6.041133836379602
 31
0.0
  0
ARC
  5
4948
330
1E
100
AcDbEntity
  8
OBJECT
 62
     7
100
AcDbCircle
 10
4.194013028156066
 20
6.167558695831695
 30
0.0
 40
0.0197539028086737
100
AcDbArc
 50
90.0
 51
180.0
  0
ARC
  5
4949
330
1E
100
AcDbEntity
  8
OBJECT
 62
     7
100
AcDbCircle
 10
4.352051334375005
 20
6.226820404257712
 30
0.0
 40
0.0197539028086737
100
AcDbArc
 50
180.0009003000001
 51
270.0
  0
ARC
  5
494A
330
1E
100
AcDbEntity
  8
OBJECT
 62
     7
100
AcDbCircle
 10
4.225618790654714
 20
6.511272867264211
 30
0.0
 40
0.0316062444938779
100
AcDbArc
 50
90.0
 51
180.0
  0
ARC
  5
494B
330
1E
100
AcDbEntity
  8
OBJECT
 62
     7
100
AcDbCircle
 10
4.352046510471938
 20
6.483621140770479
 30
0.0
 40
0.0197539028086737
100
AcDbArc
 50
90.0
 51
180.0009003000001
  0
LINE
  5
494C
330
1E
100
AcDbEntity
  8
DIM
 62
     1
100
AcDbLine
 10
4.392265690956923
 20
6.621898460431194
 30
0.0
 11
4.216092486202569
 21
6.621898460431195
 31
0.0
  0
LINE
  5
494D
330
1E
100
AcDbEntity
  8
OBJECT
 62
     7
100
AcDbLine
 10
4.454765690956923
 20
6.542882849196496
 30
0.0
 11
4.454765690956923
 21
6.621898460431194
 31
0.0
  0
LINE
  5
494E
330
1E
100
AcDbEntity
  8
OBJECT
 62
     7
100
AcDbLine
 10
5.165906041939517
 20
6.542882849196496
 30
0.0
 11
5.165906041939517
 21
6.621898460431194
 31
0.0
  0
LINE
  5
494F
330
1E
100
AcDbEntity
  8
OBJECT
 62
     7
100
AcDbLine
 10
6.311636320066123
 20
5.977913268045597
 30
0.0
 11
6.311636320066123
 21
5.693455380617399
 31
0.0
  0
LINE
  5
4950
330
1E
100
AcDbEntity
  8
OBJECT
 62
     7
100
AcDbLine
 10
6.283977059433858
 20
5.594696114898809
 30
0.0
 11
6.283977059433858
 21
6.167558695831695
 31
0.0
  0
LINE
  5
4951
330
1E
100
AcDbEntity
  8
OBJECT
 62
     7
100
AcDbLine
 10
6.311632404842589
 20
5.100833472454117
 30
0.0
 11
6.311632404842589
 21
6.041133836379602
 31
0.0
  0
CIRCLE
  5
4952
330
1E
100
AcDbEntity
  8
OBJECT
 62
     7
100
AcDbCircle
 10
5.730867480531676
 20
5.792235142985543
 30
0.0
 40
0.0849417860280775
  0
CIRCLE
  5
4953
330
1E
100
AcDbEntity
  8
OBJECT
 62
     7
100
AcDbCircle
 10
5.730867480531676
 20
5.792235142985543
 30
0.0
 40
0.1027202906543226
  0
CIRCLE
  5
4954
330
1E
100
AcDbEntity
  8
OBJECT
 62
     7
100
AcDbCircle
 10
5.730867480531676
 20
5.792236952443041
 30
0.0
 40
0.1027202906543226
  0
LINE
  5
4955
330
1E
100
AcDbEntity
  8
CENTER
 62
     3
100
AcDbLine
 10
5.730867480531676
 20
5.607909926199494
 30
0.0
 11
5.730867480531676
 21
5.997403813792386
 31
0.0
  0
CIRCLE
  5
4956
330
1E
100
AcDbEntity
  8
OBJECT
 62
     7
100
AcDbCircle
 10
5.730867480531676
 20
5.792235142985543
 30
0.0
 40
0.1580312224693895
  0
LINE
  5
4957
330
1E
100
AcDbEntity
  8
OBJECT
 62
     7
100
AcDbLine
 10
5.493171687661742
 20
5.633542303049385
 30
0.0
 11
5.483943695423257
 21
6.187312598640369
 31
0.0
  0
LINE
  5
4958
330
1E
100
AcDbEntity
  8
OBJECT
 62
     7
100
AcDbLine
 10
5.977791265640096
 20
6.187312598640369
 30
0.0
 11
5.968560559215367
 21
5.633479908371969
 31
0.0
  0
SOLID
  5
4959
330
1E
100
AcDbEntity
  8
DIM
100
AcDbTrace
 10
5.846356112406325
 20
5.560321311805419
 30
0.0
 11
5.779568041199382
 21
5.696938856595451
 31
0.0
 12
5.887054339300014
 22
5.589367040023349
 32
0.0
 13
5.887054339300014
 23
5.589367040023349
 33
0.0
1001
ACAD
1000
DSTYLE
1002
{
1070
   147
1040
0.09
1070
    77
1070
     0
1002
}
  0
LINE
  5
495A
330
1E
100
AcDbEntity
  8
DIM
 62
     1
100
AcDbLine
 10
6.260980945876889
 20
5.002080840096097
 30
0.0
 11
5.819007158288506
 21
5.002080840096097
 31
0.0
  0
LINE
  5
495B
330
1E
100
AcDbEntity
  8
CENTER
 62
     3
100
AcDbLine
 10
5.523852030790179
 20
5.792236952443041
 30
0.0
 11
5.949600315144991
 21
5.792236952443041
 31
0.0
  0
ARC
  5
495C
330
1E
100
AcDbEntity
  8
OBJECT
 62
     7
100
AcDbCircle
 10
5.532674973586127
 20
5.634203920516153
 30
0.0
 40
0.0395078056173474
100
AcDbArc
 50
180.9548035
 51
270.0
  0
LINE
  5
495D
330
1E
100
AcDbEntity
  8
OBJECT
 62
     7
100
AcDbLine
 10
6.323480945876889
 20
5.002080840096097
 30
0.0
 11
6.323480945876889
 21
5.792236952443041
 31
0.0
  0
ARC
  5
495E
330
1E
100
AcDbEntity
  8
OBJECT
 62
     7
100
AcDbCircle
 10
6.291882417257454
 20
5.100838296357184
 30
0.0
 40
0.0197539028086737
100
AcDbArc
 50
270.0
 51
0.0
  0
LINE
  5
495F
330
1E
100
AcDbEntity
  8
OBJECT
 62
     7
100
AcDbLine
 10
6.323480945876889
 20
5.112683526637379
 30
0.0
 11
6.311636320066123
 21
5.100838296357184
 31
0.0
  0
ARC
  5
4960
330
1E
100
AcDbEntity
  8
OBJECT
 62
     7
100
AcDbCircle
 10
5.929059987477225
 20
5.634203920516153
 30
0.0
 40
0.0395078056173474
100
AcDbArc
 50
270.0
 51
359.0451049999998
  0
LINE
  5
4961
330
1E
100
AcDbEntity
  8
OBJECT
 62
     7
100
AcDbLine
 10
6.311636320066123
 20
5.693455380617399
 30
0.0
 11
6.323480945876889
 21
5.681613168733552
 31
0.0
  0
LINE
  5
4962
330
1E
100
AcDbEntity
  8
OBJECT
 62
     7
100
AcDbLine
 10
6.283977059433858
 20
5.719138832186049
 30
0.0
 11
6.311632404842589
 21
5.719138832186049
 31
0.0
  0
LINE
  5
4963
330
1E
100
AcDbEntity
  8
OBJECT
 62
     7
100
AcDbLine
 10
6.145699439513828
 20
6.187312598640369
 30
0.0
 11
6.145699439513828
 21
6.542882849196496
 31
0.0
  0
LINE
  5
4964
330
1E
100
AcDbEntity
  8
OBJECT
 62
     7
100
AcDbLine
 10
6.110148684346967
 20
6.226820404257712
 30
0.0
 11
6.1101438604439
 21
6.483621140770479
 31
0.0
  0
LINE
  5
4965
330
1E
100
AcDbEntity
  8
OBJECT
 62
     7
100
AcDbLine
 10
6.264223156625188
 20
6.187312598640369
 30
0.0
 11
6.264223156625188
 21
6.511272867264211
 31
0.0
  0
ARC
  5
4966
330
1E
100
AcDbEntity
  8
OBJECT
 62
     7
100
AcDbCircle
 10
6.090394781538288
 20
6.226820404257712
 30
0.0
 40
0.0197539028086737
100
AcDbArc
 50
270.0
 51
0.0008743000000737
  0
LINE
  5
4967
330
1E
100
AcDbEntity
  8
OBJECT
 62
     7
100
AcDbLine
 10
6.283977059433858
 20
6.041133836379602
 30
0.0
 11
6.311632404842589
 21
6.041133836379602
 31
0.0
  0
ARC
  5
4968
330
1E
100
AcDbEntity
  8
OBJECT
 62
     7
100
AcDbCircle
 10
6.264223156625188
 20
6.167558695831695
 30
0.0
 40
0.0197539028086737
100
AcDbArc
 50
0.0
 51
90.0
  0
ARC
  5
4969
330
1E
100
AcDbEntity
  8
OBJECT
 62
     7
100
AcDbCircle
 10
6.09038995763522
 20
6.483621140770479
 30
0.0
 40
0.0197539028086737
100
AcDbArc
 50
0.0008743000000737
 51
90.0
  0
ARC
  5
496A
330
1E
100
AcDbEntity
  8
OBJECT
 62
     7
100
AcDbCircle
 10
6.232616793607895
 20
6.511272867264211
 30
0.0
 40
0.0316062444938779
100
AcDbArc
 50
0.0
 51
90.0
  0
MTEXT
  5
496B
330
1E
100
AcDbEntity
  8
DIM
 62
     7
100
AcDbMText
 10
5.29459051422202
 20
8.688723933604755
 30
0.0
 40
0.09
 41
0.0
 71
     5
 72
     1
  1
23.3\P[.917]
 73
     1
 44
1.0
1001
ACAD
1000
MTEXTBEGIN
1070
    73
1070
     1
1070
    44
1040
1.0
1070
    74
1070
     0
1000
MTEXTEND
  0
MTEXT
  5
496C
330
1E
100
AcDbEntity
  8
DIM
 62
     7
100
AcDbMText
 10
5.229118092390625
 20
9.117612084779118
 30
0.0
 40
0.09
 41
0.0
 71
     5
 72
     1
  1
53.4\P[2.102]
 73
     1
 44
1.0
1001
ACAD
1000
MTEXTBEGIN
1070
    73
1070
     1
1070
    44
1040
1.0
1070
    74
1070
     0
1000
MTEXTEND
  0
LINE
  5
496E
330
1E
100
AcDbEntity
  8
DIM
 62
     1
100
AcDbLine
 10
4.747835791383388
 20
7.78044097994687
 30
0.0
 11
4.216092486202569
 21
7.78044097994687
 31
0.0
  0
LINE
  5
496F
330
1E
100
AcDbEntity
  8
DIM
 62
     1
100
AcDbLine
 10
4.747835791383388
 20
7.721179271520843
 30
0.0
 11
4.216092486202569
 21
7.721179271520844
 31
0.0
  0
LINE
  5
4971
330
1E
100
AcDbEntity
  8
DIM
 62
     1
100
AcDbLine
 10
4.491035205000289
 20
7.128747986022244
 30
0.0
 11
4.216092486202569
 21
7.128747986022243
 31
0.0
  0
SOLID
  5
497B
330
1E
100
AcDbEntity
  8
DIM
 62
     1
100
AcDbTrace
 10
4.960335791383388
 20
8.713723933604756
 30
0.0
 11
4.960335791383388
 21
8.663723933604755
 31
0.0
 12
4.810335791383388
 22
8.688723933604755
 32
0.0
 13
4.810335791383388
 23
8.688723933604755
 33
0.0
  0
LINE
  5
497C
330
1E
100
AcDbEntity
  8
DIM
 62
     1
100
AcDbLine
 10
4.960335791383388
 20
8.688723933604755
 30
0.0
 11
5.092128186335614
 21
8.688723933604755
 31
0.0
  0
LINE
  5
497D
330
1E
100
AcDbEntity
  8
DIM
 62
     1
100
AcDbLine
 10
4.324259125347392
 20
9.117612084779118
 30
0.0
 11
5.004118092390625
 21
9.117612084779118
 31
0.0
  0
SOLID
  5
497E
330
1E
100
AcDbEntity
  8
DIM
 62
     1
100
AcDbTrace
 10
4.324259125347392
 20
9.142612084779118
 30
0.0
 11
4.324259125347392
 21
9.092612084779117
 31
0.0
 12
4.174259125347392
 22
9.117612084779118
 32
0.0
 13
4.174259125347392
 23
9.117612084779118
 33
0.0
  0
MTEXT
  5
497F
330
1E
100
AcDbEntity
  8
DIM
 62
     7
100
AcDbMText
 10
6.013765280031534
 20
8.688723909248235
 30
0.0
 40
0.09
 41
0.0
 71
     5
 72
     1
  1
14\P[.551]
 73
     1
 44
1.0
1001
ACAD
1000
MTEXTBEGIN
1070
    73
1070
     1
1070
    44
1040
1.0
1070
    74
1070
     0
1000
MTEXTEND
  0
LINE
  5
4980
330
1E
100
AcDbEntity
  8
DIM
 62
     1
100
AcDbLine
 10
5.495448766504878
 20
8.688723933604755
 30
0.0
 11
5.580867480531676
 21
8.688723933604755
 31
0.0
  0
SOLID
  5
4981
330
1E
100
AcDbEntity
  8
DIM
 62
     1
100
AcDbTrace
 10
5.580867480531676
 20
8.713723933604756
 30
0.0
 11
5.580867480531676
 21
8.663723933604755
 31
0.0
 12
5.730867480531676
 22
8.688723933604755
 32
0.0
 13
5.730867480531676
 23
8.688723933604755
 33
0.0
  0
SOLID
  5
4982
330
1E
100
AcDbEntity
  8
DIM
 62
     1
100
AcDbTrace
 10
6.433977059433862
 20
8.713723909248235
 30
0.0
 11
6.433977059433862
 21
8.663723909248234
 31
0.0
 12
6.283977059433862
 22
8.688723909248235
 32
0.0
 13
6.283977059433862
 23
8.688723909248235
 33
0.0
  0
LINE
  5
4983
330
1E
100
AcDbEntity
  8
DIM
 62
     1
100
AcDbLine
 10
6.133977059433858
 20
9.117612084779118
 30
0.0
 11
5.454118092390625
 21
9.117612084779118
 31
0.0
  0
SOLID
  5
4984
330
1E
100
AcDbEntity
  8
DIM
 62
     1
100
AcDbTrace
 10
6.133977059433858
 20
9.142612084779118
 30
0.0
 11
6.133977059433858
 21
9.092612084779117
 31
0.0
 12
6.283977059433858
 22
9.117612084779118
 32
0.0
 13
6.283977059433858
 23
9.117612084779118
 33
0.0
  0
SOLID
  5
4985
330
1E
100
AcDbEntity
  8
DIM
 62
     1
100
AcDbTrace
 10
7.445521733588575
 20
5.942236952443041
 30
0.0
 11
7.495521733588576
 21
5.942236952443041
 31
0.0
 12
7.470521733588576
 22
5.79223695244304
 32
0.0
 13
7.470521733588576
 23
5.79223695244304
 33
0.0
  0
SOLID
  5
4986
330
1E
100
AcDbEntity
  8
DIM
 62
     1
100
AcDbTrace
 10
7.445521733588575
 20
5.942236952443041
 30
0.0
 11
7.495521733588576
 21
5.942236952443041
 31
0.0
 12
7.470521733588576
 22
5.79223695244304
 32
0.0
 13
7.470521733588576
 23
5.79223695244304
 33
0.0
  0
LINE
  5
4987
330
1E
100
AcDbEntity
  8
DIM
 62
     1
100
AcDbLine
 10
7.018972365474223
 20
5.397146838487289
 30
0.0
 11
7.533021733588575
 21
5.397146838487289
 31
0.0
  0
LINE
  5
4988
330
1E
100
AcDbEntity
  8
OBJECT
 62
     7
100
AcDbLine
 10
6.679051196433017
 20
5.752729146825697
 30
0.0
 11
6.679051196433017
 21
5.04158864571344
 31
0.0
  0
LINE
  5
4989
330
1E
100
AcDbEntity
  8
OBJECT
 62
     7
100
AcDbLine
 10
6.916098030137105
 20
5.179865965374151
 30
0.0
 11
6.916098030137105
 21
5.614451827164977
 31
0.0
  0
LINE
  5
498A
330
1E
100
AcDbEntity
  8
OBJECT
 62
     7
100
AcDbLine
 10
6.679051196433017
 20
5.160112062565477
 30
0.0
 11
6.896344127328424
 21
5.160112062565477
 31
0.0
  0
ARC
  5
498B
330
1E
100
AcDbEntity
  8
OBJECT
 62
     7
100
AcDbCircle
 10
6.639543390815678
 20
5.04158864571344
 30
0.0
 40
0.0395078056173474
100
AcDbArc
 50
270.0
 51
0.0
  0
ARC
  5
498C
330
1E
100
AcDbEntity
  8
OBJECT
 62
     7
100
AcDbCircle
 10
6.896344127328424
 20
5.179865965374151
 30
0.0
 40
0.0197539028086737
100
AcDbArc
 50
270.0
 51
0.0
  0
LINE
  5
498D
330
1E
100
AcDbEntity
  8
DIM
 62
     1
100
AcDbLine
 10
6.702043390815678
 20
5.79223695244304
 30
0.0
 11
7.199239231109487
 21
5.79223695244304
 31
0.0
  0
LINE
  5
498E
330
1E
100
AcDbEntity
  8
OBJECT
 62
     7
100
AcDbLine
 10
6.679051196433017
 20
5.634205729973651
 30
0.0
 11
6.896344127328424
 21
5.634205729973651
 31
0.0
  0
ARC
  5
498F
330
1E
100
AcDbEntity
  8
OBJECT
 62
     7
100
AcDbCircle
 10
6.639543390815678
 20
5.752729146825697
 30
0.0
 40
0.0395078056173474
100
AcDbArc
 50
0.0
 51
90.0
  0
ARC
  5
4990
330
1E
100
AcDbEntity
  8
OBJECT
 62
     7
100
AcDbCircle
 10
6.896344127328424
 20
5.614451827164977
 30
0.0
 40
0.0197539028086737
100
AcDbArc
 50
0.0
 51
90.0
  0
LINE
  5
4991
330
1E
100
AcDbEntity
  8
DIM
 62
     1
100
AcDbLine
 10
7.470521733588575
 20
5.247146838487289
 30
0.0
 11
7.470521733588575
 21
5.097146838487289
 31
0.0
  0
SOLID
  5
4992
330
1E
100
AcDbEntity
  8
DIM
 62
     1
100
AcDbTrace
 10
7.445521733588575
 20
5.247146838487289
 30
0.0
 11
7.495521733588575
 21
5.247146838487289
 31
0.0
 12
7.470521733588575
 22
5.397146838487289
 32
0.0
 13
7.470521733588575
 23
5.397146838487289
 33
0.0
  0
MTEXT
  5
4993
330
1E
100
AcDbEntity
  8
DIM
 62
     7
100
AcDbMText
 10
7.470521733588574
 20
5.594691895465166
 30
0.0
 40
0.09
 41
0.0
 71
     5
 72
     1
  1
10\P[.394]
 73
     1
 44
1.0
1001
ACAD
1000
MTEXTBEGIN
1070
    73
1070
     1
1070
    44
1040
1.0
1070
    74
1070
     0
1000
MTEXTEND
  0
MTEXT
  5
4994
330
1E
100
AcDbEntity
  8
DIM
 62
     7
100
AcDbMText
 10
7.470521733588574
 20
6.167559900819769
 30
0.0
 40
0.09
 41
0.0
 71
     5
 72
     1
  1
19\P[.748]
 73
     1
 44
1.0
1001
ACAD
1000
MTEXTBEGIN
1070
    73
1070
     1
1070
    44
1040
1.0
1070
    74
1070
     0
1000
MTEXTEND
  0
LINE
  5
4995
330
1E
100
AcDbEntity
  8
DIM
 62
     1
100
AcDbLine
 10
7.470521733588576
 20
5.942236952443041
 30
0.0
 11
7.470521733588576
 21
6.018138128002958
 31
0.0
  0
LINE
  5
4996
330
1E
100
AcDbEntity
  8
DIM
 62
     1
100
AcDbLine
 10
7.470521733588576
 20
5.942236952443041
 30
0.0
 11
7.470521733588576
 21
6.032559900819768
 31
0.0
  0
SOLID
  5
4997
330
1E
100
AcDbEntity
  8
DIM
 62
     1
100
AcDbTrace
 10
7.445521733588575
 20
6.392882849196495
 30
0.0
 11
7.495521733588576
 21
6.392882849196495
 31
0.0
 12
7.470521733588576
 22
6.542882849196495
 32
0.0
 13
7.470521733588576
 23
6.542882849196495
 33
0.0
  0
LINE
  5
4998
330
1E
100
AcDbEntity
  8
DIM
 62
     1
100
AcDbLine
 10
7.470521733588576
 20
6.392882849196495
 30
0.0
 11
7.470521733588576
 21
6.327376303024793
 31
0.0
  0
MTEXT
  5
4999
330
1E
100
AcDbEntity
  8
DIM
 62
     7
100
AcDbMText
 10
12.73189626210238
 20
5.071886658503387
 30
0.0
 40
0.09
 41
0.0
 71
     5
 72
     1
  1
11\P[.433]
 73
     1
 44
1.0
1001
ACAD
1000
MTEXTBEGIN
1070
    73
1070
     1
1070
    44
1040
1.0
1070
    74
1070
     0
1000
MTEXTEND
  0
MTEXT
  5
499A
330
1E
100
AcDbEntity
  8
DIM
 62
     7
100
AcDbMText
 10
11.85750281130278
 20
5.06610580584147
 30
0.0
 40
0.09
 41
0.0
 71
     5
 72
     1
  1
INTERNAL \PCABLE OPENING 
 73
     1
 44
1.0
1001
ACAD
1000
MTEXTBEGIN
1070
    73
1070
     1
1070
    44
1040
1.0
1070
    74
1070
     0
1000
MTEXTEND
  0
LEADER
  5
499B
330
1E
100
AcDbEntity
  8
DIM
100
AcDbLeader
  3
Standard
 76
     3
 10
10.77339424065913
 20
5.049026403542033
 30
0.0
 10
11.10935113423138
 20
4.698817490187565
 30
0.0
 10
11.24568145127313
 20
4.698817490187565
 30
0.0
1001
ACAD
1000
DSTYLE
1002
{
1070
   147
1040
0.09
1070
    77
1070
     0
1002
}
  0
LINE
  5
499C
330
1E
100
AcDbEntity
  8
DIM
 62
     1
100
AcDbLine
 10
10.05210456225877
 20
5.137119868182826
 30
0.0
 11
10.05210456225877
 21
4.636317490187565
 31
0.0
  0
LINE
  5
499D
330
1E
100
AcDbEntity
  8
DIM
 62
     1
100
AcDbLine
 10
10.01852268648641
 20
5.532196114898809
 30
0.0
 11
10.01852268648641
 21
4.266652537601672
 31
0.0
  0
ARC
  5
499E
330
1E
100
AcDbEntity
  8
OBJECT
 62
     7
100
AcDbCircle
 10
10.24964359034551
 20
5.199619868182826
 30
0.0
 40
0.1975390280867369
100
AcDbArc
 50
180.0
 51
270.0
  0
LINE
  5
499F
330
1E
100
AcDbEntity
  8
CENTER
 62
     3
100
AcDbLine
 10
10.44718261843224
 20
7.805187806033467
 30
0.0
 11
10.44718261843224
 21
4.94046322591018
 31
0.0
  0
ARC
  5
49A0
330
1E
100
AcDbEntity
  8
OBJECT
 62
     7
100
AcDbCircle
 10
10.64472164651898
 20
5.199619868182826
 30
0.0
 40
0.1975390280867369
100
AcDbArc
 50
270.0
 51
0.0
  0
MTEXT
  5
49A1
330
1E
100
AcDbEntity
  8
DIM
 62
     7
100
AcDbMText
 10
11.78901032397206
 20
4.616467889392225
 30
0.0
 40
0.09
 41
0.0
 71
     5
 72
     1
  1
SEAL RUBBER\P(NBR)
 73
     1
 44
1.0
1001
ACAD
1000
MTEXTBEGIN
1070
    73
1070
     1
1070
    44
1040
1.0
1070
    74
1070
     0
1000
MTEXTEND
  0
MTEXT
  5
49A2
330
1E
100
AcDbEntity
  8
DIM
 62
     7
100
AcDbMText
 10
10.44718261843224
 20
4.698817490187565
 30
0.0
 40
0.09
 41
0.0
 71
     5
 72
     1
  1
21\P[.827]
 73
     1
 44
1.0
1001
ACAD
1000
MTEXTBEGIN
1070
    73
1070
     1
1070
    44
1040
1.0
1070
    74
1070
     0
1000
MTEXTEND
  0
MTEXT
  5
49A3
330
1E
100
AcDbEntity
  8
DIM
 62
     7
100
AcDbMText
 10
10.4665493460182
 20
4.329152537601672
 30
0.0
 40
0.09
 41
0.0
 71
     5
 72
     1
  1
21.7\P[.854]
 73
     1
 44
1.0
1001
ACAD
1000
MTEXTBEGIN
1070
    73
1070
     1
1070
    44
1040
1.0
1070
    74
1070
     0
1000
MTEXTEND
  0
LINE
  5
49A4
330
1E
100
AcDbEntity
  8
DIM
 62
     1
100
AcDbLine
 10
10.16852268648641
 20
4.329152537601672
 30
0.0
 11
10.26003412926331
 21
4.329152537601672
 31
0.0
  0
SOLID
  5
49A5
330
1E
100
AcDbEntity
  8
DIM
 62
     1
100
AcDbTrace
 10
10.16852268648641
 20
4.354152537601672
 30
0.0
 11
10.16852268648641
 21
4.304152537601671
 31
0.0
 12
10.01852268648641
 22
4.329152537601672
 32
0.0
 13
10.01852268648641
 23
4.329152537601672
 33
0.0
  0
SOLID
  5
49A6
330
1E
100
AcDbEntity
  8
DIM
 62
     1
100
AcDbTrace
 10
10.20210456225877
 20
4.723817490187565
 30
0.0
 11
10.20210456225877
 21
4.673817490187564
 31
0.0
 12
10.05210456225877
 22
4.698817490187565
 32
0.0
 13
10.05210456225877
 23
4.698817490187565
 33
0.0
  0
LINE
  5
49A7
330
1E
100
AcDbEntity
  8
DIM
 62
     1
100
AcDbLine
 10
10.20210456225877
 20
4.698817490187565
 30
0.0
 11
10.29718261843225
 21
4.698817490187565
 31
0.0
  0
LINE
  5
49A8
330
1E
100
AcDbEntity
  8
DIM
 62
     1
100
AcDbLine
 10
10.87584194590866
 20
4.859329898017278
 30
0.0
 11
10.87584194590866
 21
4.266652537601672
 31
0.0
  0
SOLID
  5
49A9
330
1E
100
AcDbEntity
  8
DIM
 62
     1
100
AcDbTrace
 10
10.72584194590866
 20
4.354152537601672
 30
0.0
 11
10.72584194590866
 21
4.304152537601671
 31
0.0
 12
10.87584194590866
 22
4.329152537601672
 32
0.0
 13
10.87584194590866
 23
4.329152537601672
 33
0.0
  0
LINE
  5
49AA
330
1E
100
AcDbEntity
  8
DIM
 62
     1
100
AcDbLine
 10
10.65928723031784
 20
4.329152537601672
 30
0.0
 11
10.72584194590866
 21
4.329152537601672
 31
0.0
  0
LINE
  5
49AB
330
1E
100
AcDbEntity
  8
DIM
 62
     1
100
AcDbLine
 10
10.84226067460572
 20
4.883649979429812
 30
0.0
 11
10.84226067460572
 21
4.636317490187565
 31
0.0
  0
LINE
  5
49AC
330
1E
100
AcDbEntity
  8
DIM
 62
     1
100
AcDbLine
 10
10.69226067460572
 20
4.698817490187565
 30
0.0
 11
10.59718261843225
 21
4.698817490187565
 31
0.0
  0
SOLID
  5
49AD
330
1E
100
AcDbEntity
  8
DIM
 62
     1
100
AcDbTrace
 10
10.69226067460572
 20
4.723817490187565
 30
0.0
 11
10.69226067460572
 21
4.673817490187564
 31
0.0
 12
10.84226067460572
 22
4.698817490187565
 32
0.0
 13
10.84226067460572
 23
4.698817490187565
 33
0.0
  0
LINE
  5
49B0
330
1E
100
AcDbEntity
  8
OBJECT
 62
     7
100
AcDbLine
 10
10.28915139596286
 20
5.997667170854276
 30
0.0
 11
10.60521384090163
 21
5.997667170854276
 31
0.0
  0
LINE
  5
49B1
330
1E
100
AcDbEntity
  8
OBJECT
 62
     7
100
AcDbLine
 10
10.10148931928046
 20
6.049035278979657
 30
0.0
 11
10.79287591758404
 21
6.049035278979657
 31
0.0
  0
LINE
  5
49B2
330
1E
100
AcDbEntity
  8
OBJECT
 62
     7
100
AcDbLine
 10
10.24964359034551
 20
5.792236952443041
 30
0.0
 11
10.64472164651898
 21
5.792236952443041
 31
0.0
  0
CIRCLE
  5
49B3
330
1E
100
AcDbEntity
  8
OBJECT
 62
     7
100
AcDbCircle
 10
10.44718261843224
 20
5.397146838487289
 30
0.0
 40
0.1185234168520421
  0
LINE
  5
49B4
330
1E
100
AcDbEntity
  8
OBJECT
 62
     7
100
AcDbLine
 10
10.24964359034551
 20
5.002080840096097
 30
0.0
 11
10.64472164651898
 21
5.002080840096097
 31
0.0
  0
CIRCLE
  5
49B5
330
1E
100
AcDbEntity
  8
OBJECT
 62
     7
100
AcDbCircle
 10
10.44718261843224
 20
5.397146838487289
 30
0.0
 40
0.2963085421301054
  0
CIRCLE
  5
49B6
330
1E
100
AcDbEntity
  8
OBJECT
 62
     7
100
AcDbCircle
 10
10.44718261843224
 20
5.397146838487289
 30
0.0
 40
0.2370468337040843
  0
LINE
  5
49B7
330
1E
100
AcDbEntity
  8
CENTER
 62
     3
100
AcDbLine
 10
9.886001899052542
 20
5.397146838487289
 30
0.0
 11
11.02191822492166
 21
5.397146838487289
 31
0.0
  0
LINE
  5
49B8
330
1E
100
AcDbEntity
  8
OBJECT
 62
     7
100
AcDbLine
 10
10.8620145774144
 20
6.187312598640369
 30
0.0
 11
10.0323506594501
 21
6.187312598640369
 31
0.0
  0
LINE
  5
49B9
330
1E
100
AcDbEntity
  8
OBJECT
 62
     7
100
AcDbLine
 10
10.09161236787612
 20
6.621898460431194
 30
0.0
 11
10.80275286898837
 21
6.621898460431194
 31
0.0
  0
LINE
  5
49BA
330
1E
100
AcDbEntity
  8
OBJECT
 62
     7
100
AcDbLine
 10
10.06395642194875
 20
6.542882849196496
 30
0.0
 11
10.83040821044632
 21
6.542882849196496
 31
0.0
  0
LINE
  5
49BB
330
1E
100
AcDbEntity
  8
OBJECT
 62
     7
100
AcDbLine
 10
10.22988968753685
 20
6.041133836379602
 30
0.0
 11
10.22988968753685
 21
5.79124587938522
 31
0.0
  0
LINE
  5
49BC
330
1E
100
AcDbEntity
  8
OBJECT
 62
     7
100
AcDbLine
 10
10.10148931928046
 20
6.049035278979657
 30
0.0
 11
10.10148931928046
 21
5.725357740065158
 31
0.0
  0
LINE
  5
49BD
330
1E
100
AcDbEntity
  8
OBJECT
 62
     7
100
AcDbLine
 10
10.28915139596286
 20
5.88506998805732
 30
0.0
 11
10.28915139596286
 21
5.792236952443041
 31
0.0
  0
LINE
  5
49BE
330
1E
100
AcDbEntity
  8
OBJECT
 62
     7
100
AcDbLine
 10
10.01852268648641
 20
6.168467478081192
 30
0.0
 11
10.01852268648641
 21
5.594696114898809
 31
0.0
  0
LINE
  5
49BF
330
1E
100
AcDbEntity
  8
OBJECT
 62
     7
100
AcDbLine
 10
10.05210456225878
 20
5.594697924356303
 30
0.0
 11
10.05210456225878
 21
5.199619868182826
 31
0.0
  0
ARC
  5
49C0
330
1E
100
AcDbEntity
  8
OBJECT
 62
     7
100
AcDbCircle
 10
10.24964359034551
 20
5.594697924356303
 30
0.0
 40
0.1975390280867369
100
AcDbArc
 50
90.0
 51
180.0
  0
LINE
  5
49C1
330
1E
100
AcDbEntity
  8
OBJECT
 62
     7
100
AcDbLine
 10
10.01852268648641
 20
5.594696114898809
 30
0.0
 11
10.05210456225878
 21
5.594696114898809
 31
0.0
  0
LINE
  5
49C2
330
1E
100
AcDbEntity
  8
OBJECT
 62
     7
100
AcDbLine
 10
10.36421598563821
 20
5.792236952443041
 30
0.0
 11
10.50644010742463
 21
5.792236952443041
 31
0.0
  0
LINE
  5
49C3
330
1E
100
AcDbEntity
  8
OBJECT
 62
     7
100
AcDbLine
 10
10.0323506594501
 20
6.511272867264211
 30
0.0
 11
10.0323506594501
 21
6.187312598640369
 31
0.0
  0
LINE
  5
49C4
330
1E
100
AcDbEntity
  8
OBJECT
 62
     7
100
AcDbLine
 10
10.10148931928046
 20
6.041133836379602
 30
0.0
 11
10.22988968753683
 21
6.041133836379602
 31
0.0
  0
ARC
  5
49C5
330
1E
100
AcDbEntity
  8
OBJECT
 62
     7
100
AcDbCircle
 10
10.03827658929509
 20
6.168467478081192
 30
0.0
 40
0.0197539028086737
100
AcDbArc
 50
107.4576034999999
 51
180.0
  0
LINE
  5
49C6
330
1E
100
AcDbEntity
  8
OBJECT
 62
     7
100
AcDbLine
 10
10.28915139596286
 20
5.997667170854276
 30
0.0
 11
10.24964359034551
 21
5.938405462428253
 31
0.0
  0
LINE
  5
49C7
330
1E
100
AcDbEntity
  8
OBJECT
 62
     7
100
AcDbLine
 10
10.24964359034551
 20
5.938405462428253
 30
0.0
 11
10.24964359034551
 21
5.88506998805732
 31
0.0
  0
LINE
  5
49C8
330
1E
100
AcDbEntity
  8
OBJECT
 62
     7
100
AcDbLine
 10
10.22988968753683
 20
5.865316085248646
 30
0.0
 11
10.28915139596286
 21
5.865316085248646
 31
0.0
  0
LINE
  5
49C9
330
1E
100
AcDbEntity
  8
OBJECT
 62
     7
100
AcDbLine
 10
10.22988968753683
 20
5.88506998805732
 30
0.0
 11
10.28915139596286
 21
5.88506998805732
 31
0.0
  0
LINE
  5
49CA
330
1E
100
AcDbEntity
  8
OBJECT
 62
     7
100
AcDbLine
 10
10.09161236787612
 20
6.542882849196496
 30
0.0
 11
10.09161236787612
 21
6.621898460431194
 31
0.0
  0
ARC
  5
49CB
330
1E
100
AcDbEntity
  8
OBJECT
 62
     7
100
AcDbCircle
 10
10.06395642194875
 20
6.511272867264211
 30
0.0
 40
0.0316062444938779
100
AcDbArc
 50
90.0
 51
180.0
  0
LINE
  5
49CC
330
1E
100
AcDbEntity
  8
OBJECT
 62
     7
100
AcDbLine
 10
10.87584194590866
 20
6.168467478081192
 30
0.0
 11
10.87584194590866
 21
5.594696114898809
 31
0.0
  0
LINE
  5
49CD
330
1E
100
AcDbEntity
  8
OBJECT
 62
     7
100
AcDbLine
 10
10.66447554932766
 20
6.041133836379602
 30
0.0
 11
10.66447554932766
 21
5.79124587938522
 31
0.0
  0
LINE
  5
49CE
330
1E
100
AcDbEntity
  8
OBJECT
 62
     7
100
AcDbLine
 10
10.79287591758404
 20
6.049035278979657
 30
0.0
 11
10.79287591758404
 21
5.725357740065158
 31
0.0
  0
LINE
  5
49CF
330
1E
100
AcDbEntity
  8
OBJECT
 62
     7
100
AcDbLine
 10
10.60521384090163
 20
5.88506998805732
 30
0.0
 11
10.60521384090163
 21
5.792236952443041
 31
0.0
  0
LEADER
  5
49D0
330
1E
100
AcDbEntity
  8
DIM
100
AcDbLeader
  3
Standard
 76
     3
 10
10.55370668301705
 20
5.334011994868685
 30
0.0
 10
11.11632353951906
 20
5.060319307284501
 30
0.0
 10
11.24841621223064
 20
5.060319307284501
 30
0.0
1001
ACAD
1000
DSTYLE
1002
{
1070
   147
1040
0.09
1070
    77
1070
     0
1002
}
  0
LINE
  5
49D1
330
1E
100
AcDbEntity
  8
DIM
 62
     1
100
AcDbLine
 10
10.87584194590866
 20
5.532196114898809
 30
0.0
 11
10.87584194590866
 21
5.039298370977018
 31
0.0
  0
LINE
  5
49D2
330
1E
100
AcDbEntity
  8
OBJECT
 62
     7
100
AcDbLine
 10
10.84226067460572
 20
5.594697924356303
 30
0.0
 11
10.84226067460572
 21
5.199619868182826
 31
0.0
  0
LINE
  5
49D3
330
1E
100
AcDbEntity
  8
DIM
 62
     1
100
AcDbLine
 10
10.84226067460572
 20
5.137119868182826
 30
0.0
 11
10.84226067460572
 21
5.039298370977018
 31
0.0
  0
LINE
  5
49D4
330
1E
100
AcDbEntity
  8
OBJECT
 62
     7
100
AcDbLine
 10
10.84226067460572
 20
5.594696114898809
 30
0.0
 11
10.87584194590866
 21
5.594696114898809
 31
0.0
  0
ARC
  5
49D5
330
1E
100
AcDbEntity
  8
OBJECT
 62
     7
100
AcDbCircle
 10
10.64472164651898
 20
5.594697924356303
 30
0.0
 40
0.1975390280867369
100
AcDbArc
 50
0.0
 51
90.0
  0
LINE
  5
49D6
330
1E
100
AcDbEntity
  8
OBJECT
 62
     7
100
AcDbLine
 10
10.8620145774144
 20
6.511272867264211
 30
0.0
 11
10.8620145774144
 21
6.187312598640369
 31
0.0
  0
LINE
  5
49D7
330
1E
100
AcDbEntity
  8
OBJECT
 62
     7
100
AcDbLine
 10
10.66447554932766
 20
6.041133836379602
 30
0.0
 11
10.79287591758404
 21
6.041133836379602
 31
0.0
  0
LINE
  5
49D8
330
1E
100
AcDbEntity
  8
OBJECT
 62
     7
100
AcDbLine
 10
10.60521384090163
 20
5.997667170854276
 30
0.0
 11
10.64472164651898
 21
5.938405462428253
 31
0.0
  0
LINE
  5
49D9
330
1E
100
AcDbEntity
  8
OBJECT
 62
     7
100
AcDbLine
 10
10.64472164651898
 20
5.938405462428253
 30
0.0
 11
10.64472164651898
 21
5.88506998805732
 31
0.0
  0
LINE
  5
49DA
330
1E
100
AcDbEntity
  8
OBJECT
 62
     7
100
AcDbLine
 10
10.60521384090163
 20
5.865316085248646
 30
0.0
 11
10.66447554932766
 21
5.865316085248646
 31
0.0
  0
LINE
  5
49DB
330
1E
100
AcDbEntity
  8
OBJECT
 62
     7
100
AcDbLine
 10
10.60521384090163
 20
5.88506998805732
 30
0.0
 11
10.66447554932766
 21
5.88506998805732
 31
0.0
  0
ARC
  5
49DC
330
1E
100
AcDbEntity
  8
OBJECT
 62
     7
100
AcDbCircle
 10
10.85608804309998
 20
6.168467478081192
 30
0.0
 40
0.0197539028086737
100
AcDbArc
 50
0.0
 51
72.54221339999997
  0
ARC
  5
49DD
330
1E
100
AcDbEntity
  8
OBJECT
 62
     7
100
AcDbCircle
 10
10.83040821044632
 20
6.511272867264211
 30
0.0
 40
0.0316062444938779
100
AcDbArc
 50
0.0
 51
90.0
  0
LINE
  5
49DE
330
1E
100
AcDbEntity
  8
OBJECT
 62
     7
100
AcDbLine
 10
10.80275286898837
 20
6.542882849196496
 30
0.0
 11
10.80275286898837
 21
6.621898460431194
 31
0.0
  0
LINE
  5
49E0
330
1E
100
AcDbEntity
  8
DIM
 62
     1
100
AcDbLine
 10
10.32062797911082
 20
8.2679661865915
 30
0.0
 11
10.57373725775368
 21
8.2679661865915
 31
0.0
  0
MTEXT
  5
49EA
330
1E
100
AcDbEntity
  8
DIM
 62
     7
100
AcDbMText
 10
9.909599331586782
 20
8.269422102353907
 30
0.0
 40
0.09
 41
0.0
 71
     5
 72
     1
  1
DIA
 73
     1
 44
1.0
1001
ACAD
1000
MTEXTBEGIN
1070
    73
1070
     1
1070
    44
1040
1.0
1070
    74
1070
     0
1000
MTEXTEND
  0
MTEXT
  5
49EB
330
1E
100
AcDbEntity
  8
DIM
 62
     7
100
AcDbMText
 10
9.572793020648017
 20
8.2679661865915
 30
0.0
 40
0.09
 41
0.0
 71
     5
 72
     1
  1
14\P[.551]
 73
     1
 44
1.0
1001
ACAD
1000
MTEXTBEGIN
1070
    73
1070
     1
1070
    44
1040
1.0
1070
    74
1070
     0
1000
MTEXTEND
  0
LINE
  5
49EC
330
1E
100
AcDbEntity
  8
DIM
 62
     1
100
AcDbLine
 10
10.17062797911082
 20
7.163224042596404
 30
0.0
 11
10.17062797911082
 21
8.3304661865915
 31
0.0
  0
SOLID
  5
49ED
330
1E
100
AcDbEntity
  8
DIM
 62
     1
100
AcDbTrace
 10
10.32062797911082
 20
8.292966186591501
 30
0.0
 11
10.32062797911082
 21
8.2429661865915
 31
0.0
 12
10.17062797911082
 22
8.2679661865915
 32
0.0
 13
10.17062797911082
 23
8.2679661865915
 33
0.0
  0
LINE
  5
49F0
330
1E
100
AcDbEntity
  8
DIM
 62
     1
100
AcDbLine
 10
10.05182347060918
 20
8.2679661865915
 30
0.0
 11
10.20182347060918
 21
8.2679661865915
 31
0.0
  0
LINE
  5
49F8
330
1E
100
AcDbEntity
  8
DIM
 62
     1
100
AcDbLine
 10
10.72373725775368
 20
7.1583600263139
 30
0.0
 11
10.72373725775368
 21
8.3304661865915
 31
0.0
  0
SOLID
  5
49F9
330
1E
100
AcDbEntity
  8
DIM
 62
     1
100
AcDbTrace
 10
10.57373725775368
 20
8.292966186591501
 30
0.0
 11
10.57373725775368
 21
8.2429661865915
 31
0.0
 12
10.72373725775368
 22
8.2679661865915
 32
0.0
 13
10.72373725775368
 23
8.2679661865915
 33
0.0
  0
MTEXT
  5
49FC
330
1E
100
AcDbEntity
  8
DIM
 62
     7
100
AcDbMText
 10
13.12461380091815
 20
5.087284438731369
 30
0.0
 40
0.09
 41
0.0
 71
     5
 72
     1
  1
DIA
 73
     1
 44
1.0
1001
ACAD
1000
MTEXTBEGIN
1070
    73
1070
     1
1070
    44
1040
1.0
1070
    74
1070
     0
1000
MTEXTEND
  0
LINE
  5
4A08
330
1E
100
AcDbEntity
  8
DIM
 62
     1
100
AcDbLine
 10
4.107528596233628
 20
7.78044097994687
 30
0.0
 11
2.985880761233893
 21
7.780440979946871
 31
0.0
  0
LINE
  5
4A09
330
1E
100
AcDbEntity
  8
DIM
 62
     1
100
AcDbLine
 10
4.100707872545832
 20
7.721179271520843
 30
0.0
 11
2.985880761233893
 21
7.721179271520844
 31
0.0
  0
LINE
  5
4A0A
330
1E
100
AcDbEntity
  8
DIM
100
AcDbLine
 10
11.02633841597402
 20
7.106615304083057
 30
0.0
 11
11.19675133827945
 21
7.106615304083057
 31
0.0
1001
ACAD
1000
DSTYLE
1002
{
1070
   147
1040
0.09
1070
    77
1070
     0
1002
}
  0
LINE
  5
4A0B
330
1E
100
AcDbEntity
  8
DIM
100
AcDbLine
 10
10.77678005963074
 20
6.760307801823885
 30
0.0
 11
11.02633841597402
 21
7.106615304083057
 31
0.0
1001
ACAD
1000
DSTYLE
1002
{
1070
   147
1040
0.09
1070
    77
1070
     0
1002
}
  0
SOLID
  5
4A0C
330
1E
100
AcDbEntity
  8
DIM
100
AcDbTrace
 10
10.88513605446619
 20
6.867003529869666
 30
0.0
 11
10.77678005963074
 21
6.760307801823885
 31
0.0
 12
10.84467495375753
 22
6.896378678030042
 32
0.0
 13
10.84467495375753
 23
6.896378678030042
 33
0.0
1001
ACAD
1000
DSTYLE
1002
{
1070
   147
1040
0.09
1070
    77
1070
     0
1002
}
  0
MTEXT
  5
4A0D
330
1E
100
AcDbEntity
  8
DIM
 62
     7
100
AcDbMText
 10
11.67550306775585
 20
7.106206250586833
 30
0.0
 40
0.09
 41
0.0
 71
     5
 72
     1
  1
M14X1 NUTS
 73
     1
 44
1.0
1001
ACAD
1000
MTEXTBEGIN
1070
    73
1070
     1
1070
    44
1040
1.0
1070
    74
1070
     0
1000
MTEXTEND
  0
LINE
  5
4A97
330
1E
100
AcDbEntity
  8
OBJECT
 62
     7
100
AcDbLine
 10
4.690470764227737
 20
7.628141255795494
 30
0.0
 11
4.930200970368272
 21
7.628141255795494
 31
0.0
  0
LINE
  5
4A98
330
1E
100
AcDbEntity
  8
OBJECT
 62
     7
100
AcDbLine
 10
4.800347026467984
 20
7.404392677964517
 30
0.0
 11
4.994669777649277
 21
7.404392677964517
 31
0.0
  0
CIRCLE
  5
4A9A
330
1E
100
AcDbEntity
  8
OBJECT
 62
     7
100
AcDbCircle
 10
4.810335791383388
 20
7.504280327118582
 30
0.0
 40
0.0439505656277894
  0
CIRCLE
  5
4A9B
330
1E
100
AcDbEntity
  8
OBJECT
 62
     7
100
AcDbCircle
 10
4.810335791383388
 20
7.504280327118582
 30
0.0
 40
0.0599325894924402
  0
ARC
  5
4A9C
330
1E
100
AcDbEntity
  8
OBJECT
 62
     7
100
AcDbCircle
 10
4.810335791383388
 20
7.504280327118582
 30
0.0
 40
0.2077663022494472
100
AcDbArc
 50
331.2643127
 51
194.8352050999999
  0
ARC
  5
4A9D
330
1E
100
AcDbEntity
  8
OBJECT
 62
     7
100
AcDbCircle
 10
4.810335791383388
 20
7.504280327118582
 30
0.0
 40
0.2197528281389472
100
AcDbArc
 50
332.1744995000001
 51
202.838501
  0
LINE
  5
4A9E
330
1E
100
AcDbEntity
  8
OBJECT
 62
     7
100
AcDbLine
 10
4.570605585242859
 20
7.128703010025162
 30
0.0
 11
5.05006614935315
 21
7.128703010025162
 31
0.0
  0
LINE
  5
4A9F
330
1E
100
AcDbEntity
  8
OBJECT
 62
     7
100
AcDbLine
 10
4.530650525581232
 20
7.088747950363531
 30
0.0
 11
5.09002120901478
 21
7.088747950363531
 31
0.0
  0
ARC
  5
4AA0
330
1E
100
AcDbEntity
  8
OBJECT
 62
     7
100
AcDbCircle
 10
4.810335791383388
 20
7.564212916611026
 30
0.0
 40
0.2197528281389472
100
AcDbArc
 50
352.1625061
 51
187.8374939
  0
LINE
  5
4AA1
330
1E
100
AcDbEntity
  8
OBJECT
 62
     7
100
AcDbLine
 10
4.612979951735536
 20
7.517541779006828
 30
0.0
 11
4.592582817863666
 21
7.128703010025162
 31
0.0
  0
LINE
  5
4AA2
330
1E
100
AcDbEntity
  8
OBJECT
 62
     7
100
AcDbLine
 10
4.570605585242859
 20
7.128703010025162
 30
0.0
 11
4.530650525581232
 21
7.088747950363531
 31
0.0
  0
LINE
  5
4AA3
330
1E
100
AcDbEntity
  8
OBJECT
 62
     7
100
AcDbLine
 10
4.632918613284313
 20
7.536244494713066
 30
0.0
 11
4.680481999312328
 21
7.536244494713066
 31
0.0
  0
ARC
  5
4AA4
330
1E
100
AcDbEntity
  8
OBJECT
 62
     7
100
AcDbCircle
 10
4.800347026467984
 20
7.504280327118582
 30
0.0
 40
0.0998876491540669
100
AcDbArc
 50
180.0
 51
270.0
  0
LINE
  5
4AA5
330
1E
100
AcDbEntity
  8
OBJECT
 62
     7
100
AcDbLine
 10
4.700957321240455
 20
7.494291562203173
 30
0.0
 11
4.751242405977564
 21
7.494291562203173
 31
0.0
  0
LINE
  5
4AA6
330
1E
100
AcDbEntity
  8
OBJECT
 62
     7
100
AcDbLine
 10
4.701444748995292
 20
7.490296419828059
 30
0.0
 11
4.752056917837307
 21
7.490296419828059
 31
0.0
  0
LINE
  5
4AA7
330
1E
100
AcDbEntity
  8
OBJECT
 62
     7
100
AcDbLine
 10
4.690470764227737
 20
7.548231136472242
 30
0.0
 11
4.769590908093382
 21
7.548231136472242
 31
0.0
  0
LINE
  5
4AA8
330
1E
100
AcDbEntity
  8
OBJECT
 62
     7
100
AcDbLine
 10
4.690470764227737
 20
7.55222688616427
 30
0.0
 11
4.774375566442921
 21
7.55222688616427
 31
0.0
  0
LINE
  5
4AA9
330
1E
100
AcDbEntity
  8
OBJECT
 62
     7
100
AcDbLine
 10
4.690470764227737
 20
7.544235386780208
 30
0.0
 11
4.765664660227638
 21
7.544235386780208
 31
0.0
  0
LINE
  5
4AAA
330
1E
100
AcDbEntity
  8
OBJECT
 62
     7
100
AcDbLine
 10
4.700459529143146
 20
7.504280327118582
 30
0.0
 11
4.700459529143146
 21
7.516266964882253
 31
0.0
  0
ARC
  5
4AAB
330
1E
100
AcDbEntity
  8
OBJECT
 62
     7
100
AcDbCircle
 10
4.680481999312328
 20
7.516266964882253
 30
0.0
 40
0.0199775298308134
100
AcDbArc
 50
0.0
 51
90.0
  0
LINE
  5
4AAC
330
1E
100
AcDbEntity
  8
OBJECT
 62
     7
100
AcDbLine
 10
4.700640141994834
 20
7.498287311895206
 30
0.0
 11
4.750705897427442
 21
7.498287311895206
 31
0.0
  0
LINE
  5
4AAD
330
1E
100
AcDbEntity
  8
OBJECT
 62
     7
100
AcDbLine
 10
4.690470764227737
 20
7.533567453774161
 30
0.0
 11
4.690470764227737
 21
7.628141255795494
 31
0.0
  0
LINE
  5
4AAE
330
1E
100
AcDbEntity
  8
CENTER
 62
     3
100
AcDbLine
 10
5.06343088446765
 20
7.504280327118582
 30
0.0
 11
4.55062805541204
 21
7.504280327118582
 31
0.0
  0
ARC
  5
4AAF
330
1E
100
AcDbEntity
  8
OBJECT
 62
     7
100
AcDbCircle
 10
4.632918613284313
 20
7.516266964882253
 30
0.0
 40
0.0199775298308134
100
AcDbArc
 50
90.0
 51
176.3404999
  0
LINE
  5
4AB6
330
1E
100
AcDbEntity
  8
OBJECT
 62
     7
100
AcDbLine
 10
5.014618044394393
 20
7.385461942728296
 30
0.0
 11
5.028089524049252
 21
7.128703010025162
 31
0.0
  0
LINE
  5
4AB7
330
1E
100
AcDbEntity
  8
OBJECT
 62
     7
100
AcDbLine
 10
5.05006614935315
 20
7.128703010025162
 30
0.0
 11
5.09002120901478
 21
7.088747950363531
 31
0.0
  0
LINE
  5
4ABC
330
1E
100
AcDbEntity
  8
OBJECT
 62
     7
100
AcDbLine
 10
4.851081281990303
 20
7.548231136472242
 30
0.0
 11
4.930200970368272
 21
7.548231136472242
 31
0.0
  0
LINE
  5
4ABD
330
1E
100
AcDbEntity
  8
OBJECT
 62
     7
100
AcDbLine
 10
4.846291745127976
 20
7.55222688616427
 30
0.0
 11
4.930200970368272
 21
7.55222688616427
 31
0.0
  0
LINE
  5
4ABE
330
1E
100
AcDbEntity
  8
OBJECT
 62
     7
100
AcDbLine
 10
4.855007529856047
 20
7.544235386780208
 30
0.0
 11
4.930200970368272
 21
7.544235386780208
 31
0.0
  0
LINE
  5
4ABF
330
1E
100
AcDbEntity
  8
OBJECT
 62
     7
100
AcDbLine
 10
4.869429784106121
 20
7.494291562203173
 30
0.0
 11
4.930200970368272
 21
7.494291562203173
 31
0.0
  0
LINE
  5
4AC0
330
1E
100
AcDbEntity
  8
OBJECT
 62
     7
100
AcDbLine
 10
4.868610393733594
 20
7.490296419828059
 30
0.0
 11
4.930200970368272
 21
7.490296419828059
 31
0.0
  0
ARC
  5
4AC1
330
1E
100
AcDbEntity
  8
OBJECT
 62
     7
100
AcDbCircle
 10
4.994669777649277
 20
7.384415148133708
 30
0.0
 40
0.0199775298308134
100
AcDbArc
 50
3.003596999999947
 51
90.0
  0
LINE
  5
4AC2
330
1E
100
AcDbEntity
  8
OBJECT
 62
     7
100
AcDbLine
 10
4.86996628866074
 20
7.498287311895206
 30
0.0
 11
4.930200970368272
 21
7.498287311895206
 31
0.0
  0
LINE
  5
4AC3
330
1E
100
AcDbEntity
  8
OBJECT
 62
     7
100
AcDbLine
 10
4.930200970368272
 20
7.404392677964517
 30
0.0
 11
4.930200970368272
 21
7.628141255795494
 31
0.0
  0
LINE
  5
4ACC
330
1E
100
AcDbEntity
  8
OBJECT
 62
     7
100
AcDbLine
 10
4.530650525581232
 20
6.965099183053425
 30
0.0
 11
4.530650525581232
 21
7.088747950363531
 31
0.0
  0
LINE
  5
4ACD
330
1E
100
AcDbEntity
  8
OBJECT
 62
     7
100
AcDbLine
 10
4.55063796027133
 20
6.965099183053425
 30
0.0
 11
4.55063796027133
 21
7.108729747394718
 31
0.0
  0
LINE
  5
4ACE
330
1E
100
AcDbEntity
  8
OBJECT
 62
     7
100
AcDbLine
 10
5.09002120901478
 20
6.965099183053425
 30
0.0
 11
5.09002120901478
 21
7.088747950363531
 31
0.0
  0
LINE
  5
4ACF
330
1E
100
AcDbEntity
  8
OBJECT
 62
     7
100
AcDbLine
 10
5.07005373587248
 20
6.965099183053425
 30
0.0
 11
5.07005373587248
 21
7.108729747394718
 31
0.0
  0
LINE
  5
4AD3
330
1E
100
AcDbEntity
  8
OBJECT
 62
     7
100
AcDbLine
 10
10.34553718704423
 20
7.387410337907256
 30
0.0
 11
10.34553718704423
 21
7.132300788885073
 31
0.0
  0
LINE
  5
4AD4
330
1E
100
AcDbEntity
  8
OBJECT
 62
     7
100
AcDbLine
 10
10.64999054242733
 20
7.407340790420821
 30
0.0
 11
10.66442442726136
 21
7.132300788885073
 31
0.0
  0
LINE
  5
4AD5
330
1E
100
AcDbEntity
  8
OBJECT
 62
     7
100
AcDbLine
 10
10.54883169709307
 20
7.518951444079535
 30
0.0
 11
10.54883169709307
 21
7.132300788885073
 31
0.0
  0
LINE
  5
4AD6
330
1E
100
AcDbEntity
  8
OBJECT
 62
     7
100
AcDbLine
 10
10.24437408456531
 20
7.407340790420821
 30
0.0
 11
10.22994445687594
 21
7.132300788885073
 31
0.0
  0
LINE
  5
4AD7
330
1E
100
AcDbEntity
  8
OBJECT
 62
     7
100
AcDbLine
 10
10.53388385770789
 20
7.299716466430256
 30
0.0
 11
10.53388385770789
 21
7.71427024543285
 31
0.0
  0
LINE
  5
4AD8
330
1E
100
AcDbEntity
  8
OBJECT
 62
     7
100
AcDbLine
 10
10.3604850264294
 20
7.299716466430256
 30
0.0
 11
10.3604850264294
 21
7.71427024543285
 31
0.0
  0
LINE
  5
4AD9
330
1E
100
AcDbEntity
  8
OBJECT
 62
     7
100
AcDbLine
 10
10.37244342150635
 20
7.726228030637956
 30
0.0
 11
10.37244342150635
 21
7.287758075339395
 31
0.0
  0
LINE
  5
4ADA
330
1E
100
AcDbEntity
  8
OBJECT
 62
     7
100
AcDbLine
 10
10.52192181535813
 20
7.287758075339395
 30
0.0
 11
10.52192181535813
 21
7.726228030637956
 31
0.0
  0
LINE
  5
4ADB
330
1E
100
AcDbEntity
  8
OBJECT
 62
     7
100
AcDbLine
 10
10.34753035586439
 20
7.21600893259359
 30
0.0
 11
10.34753035586439
 21
7.630562101724336
 31
0.0
  0
LINE
  5
4ADC
330
1E
100
AcDbEntity
  8
OBJECT
 62
     7
100
AcDbLine
 10
10.5468348810001
 20
7.21600893259359
 30
0.0
 11
10.5468348810001
 21
7.630562101724336
 31
0.0
  0
LINE
  5
4ADD
330
1E
100
AcDbEntity
  8
OBJECT
 62
     7
100
AcDbLine
 10
10.20801718826939
 20
7.132300788885073
 30
0.0
 11
10.68634804859509
 21
7.132300788885073
 31
0.0
  0
LINE
  5
4ADE
330
1E
100
AcDbEntity
  8
OBJECT
 62
     7
100
AcDbLine
 10
10.70628640951222
 20
7.112374593516156
 30
0.0
 11
10.18809464415938
 21
7.112374593516156
 31
0.0
  0
LINE
  5
4ADF
330
1E
100
AcDbEntity
  8
OBJECT
 62
     7
100
AcDbLine
 10
10.20801718826939
 20
7.132300788885073
 30
0.0
 11
10.16815628324225
 21
7.092439883857927
 31
0.0
  0
LINE
  5
4AE0
330
1E
100
AcDbEntity
  8
OBJECT
 62
     7
100
AcDbLine
 10
10.37244342150635
 20
7.287758075339395
 30
0.0
 11
10.52192181535813
 21
7.287758075339395
 31
0.0
  0
LINE
  5
4AE1
330
1E
100
AcDbEntity
  8
OBJECT
 62
     7
100
AcDbLine
 10
10.34753035586439
 20
7.21600893259359
 30
0.0
 11
10.5468348810001
 21
7.21600893259359
 31
0.0
  0
LINE
  5
4AE2
330
1E
100
AcDbEntity
  8
OBJECT
 62
     7
100
AcDbLine
 10
10.3604850264294
 20
7.299716466430256
 30
0.0
 11
10.37244342150635
 21
7.287758075339395
 31
0.0
  0
LINE
  5
4AE3
330
1E
100
AcDbEntity
  8
OBJECT
 62
     7
100
AcDbLine
 10
10.53388385770789
 20
7.299716466430256
 30
0.0
 11
10.52192181535813
 21
7.287758075339395
 31
0.0
  0
LINE
  5
4AE4
330
1E
100
AcDbEntity
  8
OBJECT
 62
     7
100
AcDbLine
 10
10.68634804859509
 20
7.132300788885073
 30
0.0
 11
10.72620895362223
 21
7.092439883857927
 31
0.0
  0
LINE
  5
4AE5
330
1E
100
AcDbEntity
  8
OBJECT
 62
     7
100
AcDbLine
 10
10.26328393049438
 20
7.407340790420821
 30
0.0
 11
10.32560673453066
 21
7.407340790420821
 31
0.0
  0
LINE
  5
4AE6
330
1E
100
AcDbEntity
  8
OBJECT
 62
     7
100
AcDbLine
 10
10.28612840649779
 20
7.538881896593105
 30
0.0
 11
10.31265206396564
 21
7.538881896593105
 31
0.0
  0
ARC
  5
4AE8
330
1E
100
AcDbEntity
  8
OBJECT
 62
     7
100
AcDbCircle
 10
10.15092393566816
 20
7.479218269336461
 30
0.0
 40
0.11789567801187
100
AcDbArc
 50
322.4342041
 51
332.1953124999999
  0
ARC
  5
4AE9
330
1E
100
AcDbEntity
  8
OBJECT
 62
     7
100
AcDbCircle
 10
10.26328393049438
 20
7.387410337907256
 30
0.0
 40
0.0199304525135707
100
AcDbArc
 50
90.0
 51
176.9963989
  0
ARC
  5
4AEA
330
1E
100
AcDbEntity
  8
OBJECT
 62
     7
100
AcDbCircle
 10
2.999233700600091
 20
7.914196381452008
 30
0.0
 40
7.277676385307126
100
AcDbArc
 50
356.4957886000001
 51
356.8967896000001
  0
ARC
  5
4AEB
330
1E
100
AcDbEntity
  8
OBJECT
 62
     7
100
AcDbCircle
 10
10.20745518538333
 20
7.447883520214546
 30
0.0
 40
0.0532918775324166
100
AcDbArc
 50
333.6467896
 51
340.0360107
  0
ARC
  5
4AEC
330
1E
100
AcDbEntity
  8
OBJECT
 62
     7
100
AcDbCircle
 10
10.1531920211642
 20
7.463018693895076
 30
0.0
 40
0.109547293770886
100
AcDbArc
 50
342.28479
 51
358.2955932999999
  0
ARC
  5
4AED
330
1E
100
AcDbEntity
  8
OBJECT
 62
     7
100
AcDbCircle
 10
8.013215639258032
 20
7.608112364277328
 30
0.0
 40
2.254360561322766
100
AcDbArc
 50
356.2268982
 51
356.4718018000001
  0
ARC
  5
4AEE
330
1E
100
AcDbEntity
  8
OBJECT
 62
     7
100
AcDbCircle
 10
10.28612840649779
 20
7.518951444079535
 30
0.0
 40
0.0199304525135707
100
AcDbArc
 50
90.0
 51
176.3404999
  0
LINE
  5
4AEF
330
1E
100
AcDbEntity
  8
OBJECT
 62
     7
100
AcDbLine
 10
10.37244342150635
 20
7.726228030637956
 30
0.0
 11
10.52192181535813
 21
7.726228030637956
 31
0.0
  0
LINE
  5
4AF0
330
1E
100
AcDbEntity
  8
OBJECT
 62
     7
100
AcDbLine
 10
10.35151607964678
 20
7.56678441052939
 30
0.0
 11
10.34753035586439
 21
7.56678441052939
 31
0.0
  0
LINE
  5
4AF1
330
1E
100
AcDbEntity
  8
OBJECT
 62
     7
100
AcDbLine
 10
10.31265206396564
 20
7.630562101724336
 30
0.0
 11
10.34753035586439
 21
7.630562101724336
 31
0.0
  0
LINE
  5
4AF2
330
1E
100
AcDbEntity
  8
OBJECT
 62
     7
100
AcDbLine
 10
10.35151607964678
 20
7.610631649210763
 30
0.0
 11
10.3604850264294
 21
7.619600595993395
 31
0.0
  0
LINE
  5
4AF3
330
1E
100
AcDbEntity
  8
OBJECT
 62
     7
100
AcDbLine
 10
10.3604850264294
 20
7.71427024543285
 30
0.0
 11
10.37244342150635
 21
7.726228030637956
 31
0.0
  0
LINE
  5
4AF4
330
1E
100
AcDbEntity
  8
OBJECT
 62
     7
100
AcDbLine
 10
10.5468348810001
 20
7.56678441052939
 30
0.0
 11
10.54284854734586
 21
7.56678441052939
 31
0.0
  0
LINE
  5
4AF5
330
1E
100
AcDbEntity
  8
OBJECT
 62
     7
100
AcDbLine
 10
10.5468348810001
 20
7.630562101724336
 30
0.0
 11
10.58171317289884
 21
7.630562101724336
 31
0.0
  0
LINE
  5
4AF6
330
1E
100
AcDbEntity
  8
OBJECT
 62
     7
100
AcDbLine
 10
10.54284854734586
 20
7.610631649210763
 30
0.0
 11
10.53388385770789
 21
7.619600595993395
 31
0.0
  0
LINE
  5
4AF7
330
1E
100
AcDbEntity
  8
OBJECT
 62
     7
100
AcDbLine
 10
10.52192181535813
 20
7.726228030637956
 30
0.0
 11
10.53388385770789
 21
7.71427024543285
 31
0.0
  0
LINE
  5
4AF8
330
1E
100
AcDbEntity
  8
OBJECT
 62
     7
100
AcDbLine
 10
10.35151607964678
 20
7.447201695447962
 30
0.0
 11
10.34753035586439
 21
7.447201695447962
 31
0.0
  0
LINE
  5
4AF9
330
1E
100
AcDbEntity
  8
OBJECT
 62
     7
100
AcDbLine
 10
10.31265206396564
 20
7.497027826731885
 30
0.0
 11
10.34753035586439
 21
7.497027826731885
 31
0.0
  0
LINE
  5
4AFA
330
1E
100
AcDbEntity
  8
OBJECT
 62
     7
100
AcDbLine
 10
10.31265206396564
 20
7.493042098963414
 30
0.0
 11
10.34753035586439
 21
7.493042098963414
 31
0.0
  0
ARC
  5
4AFB
330
1E
100
AcDbEntity
  8
OBJECT
 62
     7
100
AcDbCircle
 10
10.32560673453066
 20
7.387410337907256
 30
0.0
 40
0.0199304525135707
100
AcDbArc
 50
0.0
 51
90.0
  0
LINE
  5
4AFC
330
1E
100
AcDbEntity
  8
OBJECT
 62
     7
100
AcDbLine
 10
10.35151607964678
 20
7.403355062652344
 30
0.0
 11
10.3604850264294
 21
7.394386115869716
 31
0.0
  0
LINE
  5
4AFD
330
1E
100
AcDbEntity
  8
OBJECT
 62
     7
100
AcDbLine
 10
10.31265206396564
 20
7.550840291670056
 30
0.0
 11
10.34753035586439
 21
7.550840291670056
 31
0.0
  0
LINE
  5
4AFE
330
1E
100
AcDbEntity
  8
OBJECT
 62
     7
100
AcDbLine
 10
10.31265206396564
 20
7.554826625324292
 30
0.0
 11
10.34753035586439
 21
7.554826625324292
 31
0.0
  0
LINE
  5
4AFF
330
1E
100
AcDbEntity
  8
OBJECT
 62
     7
100
AcDbLine
 10
10.31265206396564
 20
7.546853958015814
 30
0.0
 11
10.34753035586439
 21
7.546853958015814
 31
0.0
  0
LINE
  5
4B00
330
1E
100
AcDbEntity
  8
OBJECT
 62
     7
100
AcDbLine
 10
10.31265206396564
 20
7.501014160386127
 30
0.0
 11
10.34753035586439
 21
7.501014160386127
 31
0.0
  0
ARC
  5
4B01
330
1E
100
AcDbEntity
  8
OBJECT
 62
     7
100
AcDbCircle
 10
17.89513214215016
 20
7.914196381452008
 30
0.0
 40
7.277676385307126
100
AcDbArc
 50
183.1031951999999
 51
183.5041045999999
  0
LINE
  5
4B02
330
1E
100
AcDbEntity
  8
OBJECT
 62
     7
100
AcDbLine
 10
10.5468348810001
 20
7.447201695447962
 30
0.0
 11
10.54284854734586
 21
7.447201695447962
 31
0.0
  0
LINE
  5
4B03
330
1E
100
AcDbEntity
  8
OBJECT
 62
     7
100
AcDbLine
 10
10.5468348810001
 20
7.497027826731885
 30
0.0
 11
10.54883169709307
 21
7.497027826731885
 31
0.0
  0
LINE
  5
4B04
330
1E
100
AcDbEntity
  8
OBJECT
 62
     7
100
AcDbLine
 10
10.5468348810001
 20
7.493042098963414
 30
0.0
 11
10.54883169709307
 21
7.493042098963414
 31
0.0
  0
LINE
  5
4B05
330
1E
100
AcDbEntity
  8
OBJECT
 62
     7
100
AcDbLine
 10
10.54284854734586
 20
7.403355062652344
 30
0.0
 11
10.53388385770789
 21
7.394386115869716
 31
0.0
  0
ARC
  5
4B06
330
1E
100
AcDbEntity
  8
OBJECT
 62
     7
100
AcDbCircle
 10
10.74287868843841
 20
7.478859413566777
 30
0.0
 40
0.117228924653481
100
AcDbArc
 50
207.7774048000001
 51
217.5941925
  0
ARC
  5
4B07
330
1E
100
AcDbEntity
  8
OBJECT
 62
     7
100
AcDbCircle
 10
10.68695384267142
 20
7.447895685762755
 30
0.0
 40
0.0533396269105486
100
AcDbArc
 50
199.9636993
 51
206.3470000999999
  0
ARC
  5
4B08
330
1E
100
AcDbEntity
  8
OBJECT
 62
     7
100
AcDbCircle
 10
10.74117260582844
 20
7.463018693895076
 30
0.0
 40
0.1095470944663609
100
AcDbArc
 50
181.7037964
 51
197.7147064
  0
ARC
  5
4B09
330
1E
100
AcDbEntity
  8
OBJECT
 62
     7
100
AcDbCircle
 10
12.92206638611904
 20
7.610687605949243
 30
0.0
 40
2.295355967498337
100
AcDbArc
 50
183.5294952
 51
183.7700043
  0
LINE
  5
4B0A
330
1E
100
AcDbEntity
  8
OBJECT
 62
     7
100
AcDbLine
 10
10.56876214960664
 20
7.538881896593105
 30
0.0
 11
10.60823256923596
 21
7.538881896593105
 31
0.0
  0
LINE
  5
4B0B
330
1E
100
AcDbEntity
  8
OBJECT
 62
     7
100
AcDbLine
 10
10.5468348810001
 20
7.550840291670056
 30
0.0
 11
10.58171317289884
 21
7.550840291670056
 31
0.0
  0
LINE
  5
4B0C
330
1E
100
AcDbEntity
  8
OBJECT
 62
     7
100
AcDbLine
 10
10.5468348810001
 20
7.554826625324292
 30
0.0
 11
10.58171317289884
 21
7.554826625324292
 31
0.0
  0
LINE
  5
4B0D
330
1E
100
AcDbEntity
  8
OBJECT
 62
     7
100
AcDbLine
 10
10.5468348810001
 20
7.546853958015814
 30
0.0
 11
10.58171317289884
 21
7.546853958015814
 31
0.0
  0
LINE
  5
4B0E
330
1E
100
AcDbEntity
  8
OBJECT
 62
     7
100
AcDbLine
 10
10.5468348810001
 20
7.501014160386127
 30
0.0
 11
10.54883169709307
 21
7.501014160386127
 31
0.0
  0
ARC
  5
4B0F
330
1E
100
AcDbEntity
  8
OBJECT
 62
     7
100
AcDbCircle
 10
10.56876214960664
 20
7.518951444079535
 30
0.0
 40
0.0199304525135707
100
AcDbArc
 50
90.0
 51
180.0
  0
ARC
  5
4B10
330
1E
100
AcDbEntity
  8
OBJECT
 62
     7
100
AcDbCircle
 10
10.60823256923596
 20
7.518951444079535
 30
0.0
 40
0.0199304525135707
100
AcDbArc
 50
3.003161000000078
 51
90.0
  0
LINE
  5
4B12
330
1E
100
AcDbEntity
  8
OBJECT
 62
     7
100
AcDbLine
 10
10.35151607964678
 20
7.403355062652344
 30
0.0
 11
10.35151607964678
 21
7.610631649210763
 31
0.0
  0
LINE
  5
4B13
330
1E
100
AcDbEntity
  8
OBJECT
 62
     7
100
AcDbLine
 10
10.31265206396564
 20
7.407340790420821
 30
0.0
 11
10.31265206396564
 21
7.630562101724336
 31
0.0
  0
LINE
  5
4B14
330
1E
100
AcDbEntity
  8
OBJECT
 62
     7
100
AcDbLine
 10
10.54284854734586
 20
7.403355062652344
 30
0.0
 11
10.54284854734586
 21
7.610631649210763
 31
0.0
  0
LINE
  5
4B15
330
1E
100
AcDbEntity
  8
OBJECT
 62
     7
100
AcDbLine
 10
10.58171317289884
 20
7.538881896593105
 30
0.0
 11
10.58171317289884
 21
7.630562101724336
 31
0.0
  0
LINE
  5
4B16
330
1E
100
AcDbEntity
  8
CENTER
 62
     3
100
AcDbLine
 10
10.2079617347187
 20
7.506993052988674
 30
0.0
 11
10.70627850110866
 21
7.506993052988674
 31
0.0
  0
LINE
  5
4B17
330
1E
100
AcDbEntity
  8
OBJECT
 62
     7
100
AcDbLine
 10
10.72620895362223
 20
6.949526819031618
 30
0.0
 11
10.72620895362223
 21
7.092439883857927
 31
0.0
  0
LINE
  5
4B18
330
1E
100
AcDbEntity
  8
OBJECT
 62
     7
100
AcDbLine
 10
10.70628640951222
 20
6.95027934240447
 30
0.0
 11
10.70628640951222
 21
7.112374593516156
 31
0.0
  0
LINE
  5
4B19
330
1E
100
AcDbEntity
  8
OBJECT
 62
     7
100
AcDbLine
 10
10.16815628324225
 20
6.949526886462305
 30
0.0
 11
10.16815628324225
 21
7.092439883857927
 31
0.0
  0
LINE
  5
4B1A
330
1E
100
AcDbEntity
  8
OBJECT
 62
     7
100
AcDbLine
 10
10.18809464415938
 20
6.95027934240447
 30
0.0
 11
10.18809464415938
 21
7.112374593516156
 31
0.0
  0
LINE
  5
4B21
330
1E
100
AcDbEntity
  8
DIM
 62
     1
100
AcDbLine
 10
5.055015025517814
 20
7.404392575113631
 30
0.0
 11
5.603933458535372
 21
7.404392575113631
 31
0.0
  0
LINE
  5
4B22
330
1E
100
AcDbEntity
  8
DIM
 62
     1
100
AcDbLine
 10
4.938875578235549
 20
7.548231136472242
 30
0.0
 11
5.603933458535372
 21
7.548231136472242
 31
0.0
  0
LINE
  5
4B23
330
1E
100
AcDbEntity
  8
DIM
 62
     1
100
AcDbLine
 10
5.541433458535372
 20
7.25439257511363
 30
0.0
 11
5.541433458535372
 21
7.104392575113631
 31
0.0
  0
LINE
  5
4B24
330
1E
100
AcDbEntity
  8
DIM
 62
     1
100
AcDbLine
 10
5.541433458535372
 20
7.548231136472242
 30
0.0
 11
5.541433458535372
 21
8.175956400276792
 31
0.0
  0
LINE
  5
4B25
330
1E
100
AcDbEntity
  8
DIM
 62
     1
100
AcDbLine
 10
5.391433458535372
 20
8.175956400276792
 30
0.0
 11
5.541433458535372
 21
8.175956400276792
 31
0.0
  0
SOLID
  5
4B26
330
1E
100
AcDbEntity
  8
DIM
 62
     1
100
AcDbTrace
 10
5.516433458535372
 20
7.25439257511363
 30
0.0
 11
5.566433458535373
 21
7.25439257511363
 31
0.0
 12
5.541433458535372
 22
7.404392575113631
 32
0.0
 13
5.541433458535372
 23
7.404392575113631
 33
0.0
  0
SOLID
  5
4B27
330
1E
100
AcDbEntity
  8
DIM
 62
     1
100
AcDbTrace
 10
5.516433458535372
 20
7.698231136472243
 30
0.0
 11
5.566433458535373
 21
7.698231136472243
 31
0.0
 12
5.541433458535372
 22
7.548231136472242
 32
0.0
 13
5.541433458535372
 23
7.548231136472242
 33
0.0
  0
MTEXT
  5
4B28
330
1E
100
AcDbEntity
  8
DIM
 62
     7
100
AcDbMText
 10
5.235728706703394
 20
8.156678436418726
 30
0.0
 40
0.09
 41
0.0
 71
     5
 72
     1
  1
3.6\P[.142]
 73
     1
 44
1.0
1001
ACAD
1000
MTEXTBEGIN
1070
    73
1070
     1
1070
    44
1040
1.0
1070
    74
1070
     0
1000
MTEXTEND
  0
LINE
  5
4B29
330
1E
100
AcDbEntity
  8
DIM
 62
     1
100
AcDbLine
 10
5.018295883331197
 20
7.404392677964522
 30
0.0
 11
5.958857889424102
 21
7.404392677964521
 31
0.0
  0
LINE
  5
4B2A
330
1E
100
AcDbEntity
  8
DIM
 62
     1
100
AcDbLine
 10
4.938875578235549
 20
7.494291562203173
 30
0.0
 11
5.958857889424102
 21
7.494291562203172
 31
0.0
  0
LINE
  5
4B2B
330
1E
100
AcDbEntity
  8
DIM
 62
     1
100
AcDbLine
 10
5.838465398383057
 20
7.254392677964521
 30
0.0
 11
5.838465398383057
 21
7.104392677964521
 31
0.0
  0
LINE
  5
4B2C
330
1E
100
AcDbEntity
  8
DIM
 62
     1
100
AcDbLine
 10
5.838465398383057
 20
7.644291562203172
 30
0.0
 11
5.838465398383057
 21
7.794291562203172
 31
0.0
  0
LINE
  5
4B2D
330
1E
100
AcDbEntity
  8
DIM
 62
     1
100
AcDbLine
 10
5.838465398383057
 20
7.794291562203172
 30
0.0
 11
5.988465398383057
 21
7.794291562203172
 31
0.0
  0
SOLID
  5
4B2E
330
1E
100
AcDbEntity
  8
DIM
 62
     1
100
AcDbTrace
 10
5.813465398383057
 20
7.254392677964521
 30
0.0
 11
5.863465398383057
 21
7.254392677964521
 31
0.0
 12
5.838465398383057
 22
7.404392677964521
 32
0.0
 13
5.838465398383057
 23
7.404392677964521
 33
0.0
  0
SOLID
  5
4B2F
330
1E
100
AcDbEntity
  8
DIM
 62
     1
100
AcDbTrace
 10
5.813465398383057
 20
7.644291562203172
 30
0.0
 11
5.863465398383057
 21
7.644291562203172
 31
0.0
 12
5.838465398383057
 22
7.494291562203172
 32
0.0
 13
5.838465398383057
 23
7.494291562203172
 33
0.0
  0
MTEXT
  5
4B30
330
1E
100
AcDbEntity
  8
DIM
 62
     7
100
AcDbMText
 10
6.196779670836424
 20
7.794291562203174
 30
0.0
 40
0.09
 41
0.0
 71
     5
 72
     1
  1
2.25\P[.098]
 73
     1
 44
1.0
1001
ACAD
1000
MTEXTBEGIN
1070
    73
1070
     1
1070
    44
1040
1.0
1070
    74
1070
     0
1000
MTEXTEND
  0
LINE
  5
4B31
330
1E
100
AcDbEntity
  8
DIM
 62
     1
100
AcDbLine
 10
6.283977059433858
 20
8.042269086762527
 30
0.0
 11
6.283977059433858
 21
9.180112084779118
 31
0.0
  0
LINE
  5
4B32
330
1E
100
AcDbEntity
  8
DIM
 62
     1
100
AcDbLine
 10
5.730867480531676
 20
7.54104222130493
 30
0.0
 11
5.730867480531676
 21
8.814951590763666
 31
0.0
  0
LINE
  5
4B33
330
1E
100
AcDbEntity
  8
DIM
 62
     1
100
AcDbLine
 10
5.730867480531676
 20
7.560320185162996
 30
0.0
 11
5.730867480531676
 21
7.572742805885276
 31
0.0
  0
LEADER
  5
4B34
330
1E
100
AcDbEntity
  8
DIM
100
AcDbLeader
  3
Standard
 76
     3
 10
10.48847179978771
 20
7.724182817065273
 30
0.0
 10
11.02880140640835
 20
8.408550229570174
 30
0.0
 10
11.17353256064617
 20
8.408550229570174
 30
0.0
1001
ACAD
1000
DSTYLE
1002
{
1070
   147
1040
0.09
1070
    77
1070
     0
1002
}
  0
MTEXT
  5
4B35
330
1E
100
AcDbEntity
  8
DIM
 62
     7
100
AcDbMText
 10
12.04215529907308
 20
8.349634371410498
 30
0.0
 40
0.09
 41
0.0
 71
     5
 72
     1
  1
11 DIA X 4.7 WIDTH\P[.433 DIA X .185 WIDTH]
 73
     1
 44
1.0
1001
ACAD
1000
MTEXTBEGIN
1070
    73
1070
     1
1070
    44
1040
1.0
1070
    74
1070
     0
1000
MTEXTEND
  0
LEADER
  5
4B37
330
1E
100
AcDbEntity
  8
DIM
100
AcDbLeader
  3
Standard
 76
     3
 10
10.31417243787113
 20
7.553382231345494
 30
0.0
 10
9.594070554492454
 20
7.902427144030934
 30
0.0
 10
9.389544560442757
 20
7.902427144030934
 30
0.0
1001
ACAD
1000
DSTYLE
1002
{
1070
   147
1040
0.09
1070
    77
1070
     0
1002
}
  0
LEADER
  5
4B38
330
1E
100
AcDbEntity
  8
DIM
100
AcDbLeader
  3
Standard
 76
     2
 10
10.31417243787113
 20
7.498045857006495
 30
0.0
 10
9.594070554492454
 20
7.902427144030934
 30
0.0
1001
ACAD
1000
DSTYLE
1002
{
1070
   147
1040
0.09
1070
    77
1070
     0
1002
}
  0
MTEXT
  5
4B39
330
1E
100
AcDbEntity
  8
DIM
 62
     7
100
AcDbMText
 10
8.895491365387179
 20
7.886324026861192
 30
0.0
 40
0.09
 41
0.0
 71
     5
 72
     1
  1
SETTING LINE
 73
     1
 44
1.0
1001
ACAD
1000
MTEXTBEGIN
1070
    73
1070
     1
1070
    44
1040
1.0
1070
    74
1070
     0
1000
MTEXTEND
  0
LINE
  5
4B47
330
1E
100
AcDbEntity
  8
CENTER
 62
     3
100
AcDbLine
 10
9.886001899052542
 20
5.787837275565566
 30
0.0
 11
11.02191822492166
 21
5.787837275565566
 31
0.0
  0
ENDSEC
  0
SECTION
  2
OBJECTS
  0
DICTIONARY
  5
C
330
0
100
AcDbDictionary
281
     1
  3
ACAD_COLOR
350
4B4B
  3
ACAD_GROUP
350
D
  3
ACAD_LAYOUT
350
19
  3
ACAD_MATERIAL
350
4B4A
  3
ACAD_MLINESTYLE
350
16
  3
ACAD_PLOTSETTINGS
350
18
  3
ACAD_PLOTSTYLENAME
350
E
  3
ACAD_TABLESTYLE
350
4B4C
  3
AcadDim
350
44BB
  3
ACDBHEADERROUNDTRIPXREC
350
4C08
  3
AcDbVariableDictionary
350
3CD
  3
AcmDictionary
350
4BAB
  3
AMG
350
4B53
  3
AMGSNAPSETTINGS
350
4BFE
  3
ASE_INDEX_DICTIONARY
350
3E2
  0
DICTIONARY
  5
4B4B
102
{ACAD_REACTORS
330
C
102
}
330
C
100
AcDbDictionary
281
     1
  0
DICTIONARY
  5
D
102
{ACAD_REACTORS
330
C
102
}
330
C
100
AcDbDictionary
281
     1
  0
DICTIONARY
  5
19
102
{ACAD_REACTORS
330
C
102
}
330
C
100
AcDbDictionary
281
     1
  3
Layout1
350
1D
  3
Model
350
21
  0
DICTIONARY
  5
4B4A
102
{ACAD_REACTORS
330
C
102
}
330
C
100
AcDbDictionary
281
     1
  0
DICTIONARY
  5
16
102
{ACAD_REACTORS
330
C
102
}
330
C
100
AcDbDictionary
281
     1
  3
Standard
350
17
  0
DICTIONARY
  5
18
102
{ACAD_REACTORS
330
C
102
}
330
C
100
AcDbDictionary
281
     1
  0
ACDBDICTIONARYWDFLT
  5
E
102
{ACAD_REACTORS
330
C
102
}
330
C
100
AcDbDictionary
281
     1
  3
Normal
350
F
100
AcDbDictionaryWithDefault
340
F
  0
DICTIONARY
  5
4B4C
102
{ACAD_REACTORS
330
C
102
}
330
C
100
AcDbDictionary
281
     1
  3
Standard
350
4B4D
  0
XRECORD
  5
44BB
102
{ACAD_REACTORS
330
C
102
}
330
C
100
AcDbXrecord
280
     1
 90
   990106
  3

 60
     0
 61
     0
 62
     1
 63
     3
 64
     0
 65
     0
 66
     0
 67
     3
 68
     1
 69
     0
 70
     0
 71
     0
 72
     0
 40
0.0
170
     0
  0
DICTIONARY
  5
4C08
102
{ACAD_REACTORS
330
C
102
}
330
C
100
AcDbDictionary
281
     1
  0
DICTIONARY
  5
3CD
102
{ACAD_REACTORS
330
C
102
}
330
C
100
AcDbDictionary
281
     1
  3
CTABLESTYLE
350
4C05
  3
DIMASSOC
350
3CF
  3
HIDETEXT
350
3CE
  3
PROJECTNAME
350
4C06
  0
DICTIONARY
  5
4BAB
102
{ACAD_REACTORS
330
C
102
}
330
C
100
AcDbDictionary
281
     1
  3
AcmStdDictionary
350
4BB6
  3
AMDTSECTSYM_ARROWCOLOR
350
4BD4
  0
DICTIONARY
  5
4B53
102
{ACAD_REACTORS
330
C
102
}
330
C
100
AcDbDictionary
281
     1
  0
DICTIONARY
  5
4BFE
102
{ACAD_REACTORS
330
C
102
}
330
C
100
AcDbDictionary
281
     1
  0
DICTIONARY
  5
3E2
102
{ACAD_REACTORS
330
C
102
}
330
C
100
AcDbDictionary
281
     1
  3
ASEBlockHierarchyIndexRecord
350
3E4
1001
DCO15
1040
1464945035.036
  0
LAYOUT
  5
1D
102
{ACAD_XDICTIONARY
360
4C09
102
}
102
{ACAD_REACTORS
330
19
102
}
330
19
100
AcDbPlotSettings
  1

  2
C:\Program Files\AutoCAD 2002\plotters\DWF ePlot (optimized for plotting).pc3
  4

  6

 40
0.0
 41
0.0
 42
0.0
 43
0.0
 44
0.0
 45
0.0
 46
0.0
 47
0.0
 48
0.0
 49
0.0
140
0.0
141
0.0
142
1.0
143
1.0
 70
   688
 72
     0
 73
     0
 74
     5
  7
standard.ctb
 75
    16
147
1.0
148
0.0
149
0.0
100
AcDbLayout
  1
Layout1
 70
     1
 71
     1
 10
0.0
 20
0.0
 11
12.0
 21
9.0
 12
0.0
 22
0.0
 32
0.0
 14
1.000000000000000E+20
 24
1.000000000000000E+20
 34
1.000000000000000E+20
 15
-1.000000000000000E+20
 25
-1.000000000000000E+20
 35
-1.000000000000000E+20
146
0.0
 13
0.0
 23
0.0
 33
0.0
 16
1.0
 26
0.0
 36
0.0
 17
0.0
 27
1.0
 37
0.0
 76
     0
330
1A
  0
LAYOUT
  5
21
102
{ACAD_XDICTIONARY
360
4C0B
102
}
102
{ACAD_REACTORS
330
19
102
}
330
19
100
AcDbPlotSettings
  1

  2
\\USCHMMGMT015\USCHMPD0026
  4
Tabloid
  6

 40
5.027083396911621
 41
5.027085304260253
 42
5.027099609375
 43
5.027069091796875
 44
279.3999938964844
 45
431.7999877929687
 46
0.0
 47
0.0
 48
0.0
 49
0.0
140
0.0
141
0.0
142
1.0
143
0.9914069849915843
 70
 11952
 72
     0
 73
     1
 74
     1
  7
standard.ctb
 75
     0
147
1.008667494922368
148
-2.622321565056127
149
-7.644107715091882
100
AcDbLayout
  1
Model
 70
     1
 71
     0
 10
0.0
 20
0.0
 11
12.0
 21
9.0
 12
0.0
 22
0.0
 32
0.0
 14
0.0
 24
0.0
 34
0.0
 15
0.0
 25
0.0
 35
0.0
146
0.0
 13
0.0
 23
0.0
 33
0.0
 16
1.0
 26
0.0
 36
0.0
 17
0.0
 27
1.0
 37
0.0
 76
     0
330
1E
  0
MLINESTYLE
  5
17
102
{ACAD_REACTORS
330
16
102
}
330
16
100
AcDbMlineStyle
  2
STANDARD
 70
     0
  3

 62
   256
 51
90.0
 52
90.0
 71
     2
 49
0.5
 62
   256
  6
BYLAYER
 49
-0.5
 62
   256
  6
BYLAYER
  0
ACDBPLACEHOLDER
  5
F
102
{ACAD_REACTORS
330
E
102
}
330
E
  0
TABLESTYLE
  5
4B4D
102
{ACAD_REACTORS
330
4B4C
102
}
330
4B4C
100
AcDbTableStyle
  3
Standard
 70
     0
 71
     0
 40
0.06
 41
0.06
280
     0
281
     0
  7
STANDARD
140
0.18
170
     2
 62
     0
 63
     7
283
     0
274
    -2
284
     1
 64
     0
275
    -2
285
     1
 65
     0
276
    -2
286
     1
 66
     0
277
    -2
287
     1
 67
     0
278
    -2
288
     1
 68
     0
279
    -2
289
     1
 69
     0
  7
STANDARD
140
0.25
170
     5
 62
     0
 63
     7
283
     0
274
    -2
284
     1
 64
     0
275
    -2
285
     1
 65
     0
276
    -2
286
     1
 66
     0
277
    -2
287
     1
 67
     0
278
    -2
288
     1
 68
     0
279
    -2
289
     1
 69
     0
  7
STANDARD
140
0.18
170
     5
 62
     0
 63
     7
283
     0
274
    -2
284
     1
 64
     0
275
    -2
285
     1
 65
     0
276
    -2
286
     1
 66
     0
277
    -2
287
     1
 67
     0
278
    -2
288
     1
 68
     0
279
    -2
289
     1
 69
     0
  0
DICTIONARYVAR
  5
4C05
102
{ACAD_REACTORS
330
3CD
102
}
330
3CD
100
DictionaryVariables
280
     0
  1
STANDARD
  0
DICTIONARYVAR
  5
3CF
102
{ACAD_REACTORS
330
3CD
102
}
330
3CD
100
DictionaryVariables
280
     0
  1
0
  0
DICTIONARYVAR
  5
3CE
102
{ACAD_REACTORS
330
3CD
102
}
330
3CD
100
DictionaryVariables
280
     0
  1
1
  0
DICTIONARYVAR
  5
4C06
102
{ACAD_REACTORS
330
3CD
102
}
330
3CD
100
DictionaryVariables
280
     0
  1

  0
DICTIONARY
  5
4BB6
102
{ACAD_REACTORS
330
4BAB
102
}
330
4BAB
100
AcDbDictionary
281
     1
  0
XRECORD
  5
4BD4
102
{ACAD_REACTORS
330
4BAB
102
}
330
4BAB
100
AcDbXrecord
280
     1
 90
-1023410169
  0
XRECORD
  5
3E4
102
{ACAD_REACTORS
330
3E2
102
}
330
3E2
100
AcDbXrecord
280
     1
330
0
330
0
  0
DICTIONARY
  5
4C09
330
1D
100
AcDbDictionary
280
     1
281
     1
  3
ACAD_XREC_ROUNDTRIP
360
4C0A
  0
DICTIONARY
  5
4C0B
330
21
100
AcDbDictionary
280
     1
281
     1
  3
ACAD_XREC_ROUNDTRIP
360
4C0C
  0
XRECORD
  5
4C0A
102
{ACAD_REACTORS
330
4C09
102
}
330
4C09
100
AcDbXrecord
280
     1
102
SHADEPLOT
 70
     0
102
SHADEPLOTRESLEVEL
 70
     2
102
SHADEPLOTCUSTOMDPI
 70
   300
  0
XRECORD
  5
4C0C
102
{ACAD_REACTORS
330
4C0B
102
}
330
4C0B
100
AcDbXrecord
280
     1
102
SHADEPLOT
 70
     0
102
SHADEPLOTRESLEVEL
 70
     2
102
SHADEPLOTCUSTOMDPI
 70
   300
  0
ENDSEC
  0
EOF
