  0
SECTION
  2
HEADER
  9
$ACADVER
  1
AC1015
  9
$ACADMAINTVER
 70
    20
  9
$DWGCODEPAGE
  3
ANSI_1252
  9
$INSBASE
 10
0.0
 20
0.0
 30
0.0
  9
$EXTMIN
 10
1.951385551541335
 20
2.046142620088232
 30
-0.0015258207003583
  9
$EXTMAX
 10
19.12713627834704
 20
15.35981754255459
 30
0.0000000349246037
  9
$LIMMIN
 10
0.0
 20
0.0
  9
$LIMMAX
 10
22.0
 20
17.0
  9
$ORTHOMODE
 70
     0
  9
$REGENMODE
 70
     1
  9
$FILLMODE
 70
     1
  9
$QTEXTMODE
 70
     0
  9
$MIRRTEXT
 70
     0
  9
$LTSCALE
 40
1.209999999999999
  9
$ATTMODE
 70
     1
  9
$TEXTSIZE
 40
0.2
  9
$TRACEWID
 40
0.05
  9
$TEXTSTYLE
  7
STANDARD
  9
$CLAYER
  8
0
  9
$CELTYPE
  6
BYLAYER
  9
$CECOLOR
 62
   256
  9
$CELTSCALE
 40
1.0
  9
$DISPSILH
 70
     0
  9
$DIMSCALE
 40
1.0
  9
$DIMASZ
 40
0.1875
  9
$DIMEXO
 40
0.1375
  9
$DIMDLI
 40
0.8359999999999999
  9
$DIMRND
 40
0.0
  9
$DIMDLE
 40
0.0
  9
$DIMEXE
 40
0.396
  9
$DIMTP
 40
0.02
  9
$DIMTM
 40
0.02
  9
$DIMTXT
 40
0.15625
  9
$DIMCEN
 40
0.198
  9
$DIMTSZ
 40
0.0
  9
$DIMTOL
 70
     1
  9
$DIMLIM
 70
     0
  9
$DIMTIH
 70
     1
  9
$DIMTOH
 70
     1
  9
$DIMSE1
 70
     0
  9
$DIMSE2
 70
     0
  9
$DIMTAD
 70
     0
  9
$DIMZIN
 70
     0
  9
$DIMBLK
  1
_FILLED
  9
$DIMASO
 70
     1
  9
$DIMSHO
 70
     1
  9
$DIMPOST
  1

  9
$DIMAPOST
  1

  9
$DIMALT
 70
     0
  9
$DIMALTD
 70
     2
  9
$DIMALTF
 40
25.4
  9
$DIMLFAC
 40
1.0
  9
$DIMTOFL
 70
     0
  9
$DIMTVP
 40
0.0
  9
$DIMTIX
 70
     0
  9
$DIMSOXD
 70
     0
  9
$DIMSAH
 70
     0
  9
$DIMBLK1
  1

  9
$DIMBLK2
  1

  9
$DIMSTYLE
  2
STANDARD
  9
$DIMCLRD
 70
     0
  9
$DIMCLRE
 70
     0
  9
$DIMCLRT
 70
     0
  9
$DIMTFAC
 40
1.0
  9
$DIMGAP
 40
0.09
  9
$DIMJUST
 70
     0
  9
$DIMSD1
 70
     0
  9
$DIMSD2
 70
     0
  9
$DIMTOLJ
 70
     1
  9
$DIMTZIN
 70
     0
  9
$DIMALTZ
 70
     0
  9
$DIMALTTZ
 70
     0
  9
$DIMUPT
 70
     0
  9
$DIMDEC
 70
     4
  9
$DIMTDEC
 70
     4
  9
$DIMALTU
 70
     2
  9
$DIMALTTD
 70
     2
  9
$DIMTXSTY
  7
STANDARD
  9
$DIMAUNIT
 70
     0
  9
$DIMADEC
 70
     0
  9
$DIMALTRND
 40
0.0
  9
$DIMAZIN
 70
     0
  9
$DIMDSEP
 70
    46
  9
$DIMATFIT
 70
     3
  9
$DIMFRAC
 70
     0
  9
$DIMLDRBLK
  1
_FILLED
  9
$DIMLUNIT
 70
     2
  9
$DIMLWD
 70
    -2
  9
$DIMLWE
 70
    -2
  9
$DIMTMOVE
 70
     0
  9
$LUNITS
 70
     2
  9
$LUPREC
 70
     4
  9
$SKETCHINC
 40
0.1
  9
$FILLETRAD
 40
0.0
  9
$AUNITS
 70
     0
  9
$AUPREC
 70
     0
  9
$MENU
  1
.
  9
$ELEVATION
 40
0.0
  9
$PELEVATION
 40
0.0
  9
$THICKNESS
 40
0.0
  9
$LIMCHECK
 70
     0
  9
$CHAMFERA
 40
0.0
  9
$CHAMFERB
 40
0.0
  9
$CHAMFERC
 40
0.0
  9
$CHAMFERD
 40
0.0
  9
$SKPOLY
 70
     0
  9
$TDCREATE
 40
2453102.358256250
  9
$TDUCREATE
 40
2453102.566589584
  9
$TDUPDATE
 40
2453102.361032986
  9
$TDUUPDATE
 40
2453102.569366320
  9
$TDINDWG
 40
0.0027775463
  9
$TDUSRTIMER
 40
0.0027775463
  9
$USRTIMER
 70
     1
  9
$ANGBASE
 50
0.0
  9
$ANGDIR
 70
     0
  9
$PDMODE
 70
     3
  9
$PDSIZE
 40
0.3125
  9
$PLINEWID
 40
0.0
  9
$SPLFRAME
 70
     0
  9
$SPLINETYPE
 70
     6
  9
$SPLINESEGS
 70
     8
  9
$HANDSEED
  5
88E
  9
$SURFTAB1
 70
     6
  9
$SURFTAB2
 70
     6
  9
$SURFTYPE
 70
     6
  9
$SURFU
 70
     6
  9
$SURFV
 70
     6
  9
$UCSBASE
  2

  9
$UCSNAME
  2

  9
$UCSORG
 10
0.0
 20
0.0
 30
0.0
  9
$UCSXDIR
 10
1.0
 20
0.0
 30
0.0
  9
$UCSYDIR
 10
0.0
 20
1.0
 30
0.0
  9
$UCSORTHOREF
  2

  9
$UCSORTHOVIEW
 70
     0
  9
$UCSORGTOP
 10
0.0
 20
0.0
 30
0.0
  9
$UCSORGBOTTOM
 10
0.0
 20
0.0
 30
0.0
  9
$UCSORGLEFT
 10
0.0
 20
0.0
 30
0.0
  9
$UCSORGRIGHT
 10
0.0
 20
0.0
 30
0.0
  9
$UCSORGFRONT
 10
0.0
 20
0.0
 30
0.0
  9
$UCSORGBACK
 10
0.0
 20
0.0
 30
0.0
  9
$PUCSBASE
  2

  9
$PUCSNAME
  2

  9
$PUCSORG
 10
0.0
 20
0.0
 30
0.0
  9
$PUCSXDIR
 10
1.0
 20
0.0
 30
0.0
  9
$PUCSYDIR
 10
0.0
 20
1.0
 30
0.0
  9
$PUCSORTHOREF
  2

  9
$PUCSORTHOVIEW
 70
     0
  9
$PUCSORGTOP
 10
0.0
 20
0.0
 30
0.0
  9
$PUCSORGBOTTOM
 10
0.0
 20
0.0
 30
0.0
  9
$PUCSORGLEFT
 10
0.0
 20
0.0
 30
0.0
  9
$PUCSORGRIGHT
 10
0.0
 20
0.0
 30
0.0
  9
$PUCSORGFRONT
 10
0.0
 20
0.0
 30
0.0
  9
$PUCSORGBACK
 10
0.0
 20
0.0
 30
0.0
  9
$USERI1
 70
     0
  9
$USERI2
 70
     0
  9
$USERI3
 70
     0
  9
$USERI4
 70
     0
  9
$USERI5
 70
     0
  9
$USERR1
 40
0.0
  9
$USERR2
 40
0.0
  9
$USERR3
 40
0.0
  9
$USERR4
 40
0.0
  9
$USERR5
 40
0.0
  9
$WORLDVIEW
 70
     1
  9
$SHADEDGE
 70
     3
  9
$SHADEDIF
 70
    70
  9
$TILEMODE
 70
     1
  9
$MAXACTVP
 70
    64
  9
$PINSBASE
 10
0.0
 20
0.0
 30
0.0
  9
$PLIMCHECK
 70
     0
  9
$PEXTMIN
 10
1.000000000000000E+20
 20
1.000000000000000E+20
 30
1.000000000000000E+20
  9
$PEXTMAX
 10
-1.000000000000000E+20
 20
-1.000000000000000E+20
 30
-1.000000000000000E+20
  9
$PLIMMIN
 10
0.0
 20
0.0
  9
$PLIMMAX
 10
12.0
 20
9.0
  9
$UNITMODE
 70
     0
  9
$VISRETAIN
 70
     1
  9
$PLINEGEN
 70
     0
  9
$PSLTSCALE
 70
     1
  9
$TREEDEPTH
 70
  3020
  9
$CMLSTYLE
  2
STANDARD
  9
$CMLJUST
 70
     0
  9
$CMLSCALE
 40
1.0
  9
$PROXYGRAPHICS
 70
     1
  9
$MEASUREMENT
 70
     0
  9
$CELWEIGHT
370
    -1
  9
$ENDCAPS
280
     0
  9
$JOINSTYLE
280
     0
  9
$LWDISPLAY
290
     0
  9
$INSUNITS
 70
     0
  9
$HYPERLINKBASE
  1

  9
$STYLESHEET
  1

  9
$XEDIT
290
     1
  9
$CEPSNTYPE
380
     0
  9
$PSTYLEMODE
290
     1
  9
$FINGERPRINTGUID
  2
{781CCCBC-0378-4782-920C-BCB736C949D8}
  9
$VERSIONGUID
  2
{8C21D1D7-EEEF-44B6-AE35-0F07ACA969EE}
  9
$EXTNAMES
290
     1
  9
$PSVPSCALE
 40
0.0
  9
$OLESTARTUP
290
     0
  0
ENDSEC
  0
SECTION
  2
CLASSES
  0
CLASS
  1
ACDBDICTIONARYWDFLT
  2
AcDbDictionaryWithDefault
  3
ObjectDBX Classes
 90
        0
280
     0
281
     0
  0
CLASS
  1
DICTIONARYVAR
  2
AcDbDictionaryVar
  3
ObjectDBX Classes
 90
        0
280
     0
281
     0
  0
CLASS
  1
ACDBPLACEHOLDER
  2
AcDbPlaceHolder
  3
ObjectDBX Classes
 90
        0
280
     0
281
     0
  0
CLASS
  1
LAYOUT
  2
AcDbLayout
  3
ObjectDBX Classes
 90
        0
280
     0
281
     0
  0
ENDSEC
  0
SECTION
  2
TABLES
  0
TABLE
  2
VPORT
  5
8
330
0
100
AcDbSymbolTable
 70
     2
  0
VPORT
  5
886
330
8
100
AcDbSymbolTableRecord
100
AcDbViewportTableRecord
  2
*Active
 70
     0
 10
0.0
 20
0.0
 11
1.0
 21
1.0
 12
10.53926091494419
 22
8.702980081321413
 13
0.0
 23
0.0
 14
1.0
 24
1.0
 15
0.0
 25
0.0
 16
0.0
 26
0.0
 36
1.0
 17
0.0
 27
0.0
 37
0.0
 40
13.44356443390506
 41
1.842019543973941
 42
50.0
 43
0.0
 44
0.0
 50
0.0
 51
0.0
 71
     0
 72
   100
 73
     1
 74
     1
 75
     0
 76
     0
 77
     0
 78
     0
281
     0
 65
     1
110
0.0
120
0.0
130
0.0
111
1.0
121
0.0
131
0.0
112
0.0
122
1.0
132
0.0
 79
     0
146
0.0
  0
ENDTAB
  0
TABLE
  2
LTYPE
  5
5
330
0
100
AcDbSymbolTable
 70
     6
  0
LTYPE
  5
14
330
5
100
AcDbSymbolTableRecord
100
AcDbLinetypeTableRecord
  2
BYBLOCK
 70
     0
  3

 72
    65
 73
     0
 40
0.0
  0
LTYPE
  5
15
330
5
100
AcDbSymbolTableRecord
100
AcDbLinetypeTableRecord
  2
BYLAYER
 70
     0
  3

 72
    65
 73
     0
 40
0.0
  0
LTYPE
  5
16
330
5
100
AcDbSymbolTableRecord
100
AcDbLinetypeTableRecord
  2
CONTINUOUS
 70
     0
  3
Solid line
 72
    65
 73
     0
 40
0.0
  0
LTYPE
  5
1F5
330
5
100
AcDbSymbolTableRecord
100
AcDbLinetypeTableRecord
  2
CENTER
 70
     0
  3
____ _ ____ _ ____ _ ____ _ ____ _ ____ _ ____
 72
    65
 73
     4
 40
0.6
 49
0.375
 74
     0
 49
-0.075
 74
     0
 49
0.075
 74
     0
 49
-0.075
 74
     0
  0
LTYPE
  5
1F6
330
5
100
AcDbSymbolTableRecord
100
AcDbLinetypeTableRecord
  2
HIDDEN
 70
     0
  3
- - - - - - - - - - - - - - - - - - - -
 72
    65
 73
     2
 40
0.2
 49
0.1
 74
     0
 49
-0.1
 74
     0
  0
LTYPE
  5
1F7
330
5
100
AcDbSymbolTableRecord
100
AcDbLinetypeTableRecord
  2
PHANTOM
 70
     0
  3
_____ _ _ _____ _ _ _____ _ _ _____
 72
    65
 73
     6
 40
0.8
 49
0.45
 74
     0
 49
-0.05
 74
     0
 49
0.1
 74
     0
 49
-0.05
 74
     0
 49
0.1
 74
     0
 49
-0.05
 74
     0
  0
LTYPE
  5
1F8
330
5
100
AcDbSymbolTableRecord
100
AcDbLinetypeTableRecord
  2
DOT
 70
     0
  3
. . . . . . . . . . . . . . . . . . . .
 72
    65
 73
     2
 40
0.2
 49
0.1
 74
     0
 49
-0.1
 74
     0
  0
LTYPE
  5
1F9
330
5
100
AcDbSymbolTableRecord
100
AcDbLinetypeTableRecord
  2
DASHED
 70
     0
  3
- - - - - - - - - - - - - - - - - - - -
 72
    65
 73
     2
 40
0.2
 49
0.1
 74
     0
 49
-0.1
 74
     0
  0
ENDTAB
  0
TABLE
  2
LAYER
  5
2
330
0
100
AcDbSymbolTable
 70
    33
  0
LAYER
  5
10
330
2
100
AcDbSymbolTableRecord
100
AcDbLayerTableRecord
  2
0
 70
     0
 62
     7
  6
CONTINUOUS
370
    -3
390
801
  0
LAYER
  5
1FA
330
2
100
AcDbSymbolTableRecord
100
AcDbLayerTableRecord
  2
DEFAULT_1
 70
     0
 62
     7
  6
CENTER
370
    -3
390
801
  0
LAYER
  5
1FB
330
2
100
AcDbSymbolTableRecord
100
AcDbLayerTableRecord
  2
DEFAULT_2
 70
     0
 62
     8
  6
HIDDEN
370
    -3
390
801
  0
LAYER
  5
1FC
330
2
100
AcDbSymbolTableRecord
100
AcDbLayerTableRecord
  2
DEFAULT_3
 70
     0
 62
     7
  6
PHANTOM
370
    -3
390
801
  0
LAYER
  5
1FD
330
2
100
AcDbSymbolTableRecord
100
AcDbLayerTableRecord
  2
01_ALL_DTM_PLN
 70
     0
 62
     7
  6
CONTINUOUS
370
    -3
390
801
  0
LAYER
  5
1FE
330
2
100
AcDbSymbolTableRecord
100
AcDbLayerTableRecord
  2
01__ASM_ALL_DTM_PLN
 70
     0
 62
     7
  6
CONTINUOUS
370
    -3
390
801
  0
LAYER
  5
1FF
330
2
100
AcDbSymbolTableRecord
100
AcDbLayerTableRecord
  2
01__ASM_DEF_DTM_PLN
 70
     0
 62
     7
  6
CONTINUOUS
370
    -3
390
801
  0
LAYER
  5
200
330
2
100
AcDbSymbolTableRecord
100
AcDbLayerTableRecord
  2
01___PRT_ALL_DTM_PLN
 70
     0
 62
     7
  6
CONTINUOUS
370
    -3
390
801
  0
LAYER
  5
201
330
2
100
AcDbSymbolTableRecord
100
AcDbLayerTableRecord
  2
01___PRT_DEF_DTM_PLN
 70
     0
 62
     7
  6
CONTINUOUS
370
    -3
390
801
  0
LAYER
  5
202
330
2
100
AcDbSymbolTableRecord
100
AcDbLayerTableRecord
  2
02_ALL_AXES
 70
     0
 62
     7
  6
CONTINUOUS
370
    -3
390
801
  0
LAYER
  5
203
330
2
100
AcDbSymbolTableRecord
100
AcDbLayerTableRecord
  2
02__ASM_ALL_AXES
 70
     0
 62
     7
  6
CONTINUOUS
370
    -3
390
801
  0
LAYER
  5
204
330
2
100
AcDbSymbolTableRecord
100
AcDbLayerTableRecord
  2
02___PRT_ALL_AXES
 70
     0
 62
     7
  6
CONTINUOUS
370
    -3
390
801
  0
LAYER
  5
205
330
2
100
AcDbSymbolTableRecord
100
AcDbLayerTableRecord
  2
03_ALL_CURVES
 70
     0
 62
     7
  6
CONTINUOUS
370
    -3
390
801
  0
LAYER
  5
206
330
2
100
AcDbSymbolTableRecord
100
AcDbLayerTableRecord
  2
03__ASM_ALL_CURVES
 70
     0
 62
     7
  6
CONTINUOUS
370
    -3
390
801
  0
LAYER
  5
207
330
2
100
AcDbSymbolTableRecord
100
AcDbLayerTableRecord
  2
03___PRT_ALL_CURVES
 70
     0
 62
     7
  6
CONTINUOUS
370
    -3
390
801
  0
LAYER
  5
208
330
2
100
AcDbSymbolTableRecord
100
AcDbLayerTableRecord
  2
04_ALL_DTM_PNT
 70
     0
 62
     7
  6
CONTINUOUS
370
    -3
390
801
  0
LAYER
  5
209
330
2
100
AcDbSymbolTableRecord
100
AcDbLayerTableRecord
  2
04__ASM_ALL_DTM_PNT
 70
     0
 62
     7
  6
CONTINUOUS
370
    -3
390
801
  0
LAYER
  5
20A
330
2
100
AcDbSymbolTableRecord
100
AcDbLayerTableRecord
  2
04___PRT_ALL_DTM_PNT
 70
     0
 62
     7
  6
CONTINUOUS
370
    -3
390
801
  0
LAYER
  5
20B
330
2
100
AcDbSymbolTableRecord
100
AcDbLayerTableRecord
  2
05_ALL_DTM_CSYS
 70
     0
 62
     7
  6
CONTINUOUS
370
    -3
390
801
  0
LAYER
  5
20C
330
2
100
AcDbSymbolTableRecord
100
AcDbLayerTableRecord
  2
05__ASM_ALL_DTM_CSYS
 70
     0
 62
     7
  6
CONTINUOUS
370
    -3
390
801
  0
LAYER
  5
20D
330
2
100
AcDbSymbolTableRecord
100
AcDbLayerTableRecord
  2
05__ASM_DEF_DTM_CSYS
 70
     0
 62
     7
  6
CONTINUOUS
370
    -3
390
801
  0
LAYER
  5
20E
330
2
100
AcDbSymbolTableRecord
100
AcDbLayerTableRecord
  2
05___PRT_ALL_DTM_CSYS
 70
     0
 62
     7
  6
CONTINUOUS
370
    -3
390
801
  0
LAYER
  5
20F
330
2
100
AcDbSymbolTableRecord
100
AcDbLayerTableRecord
  2
05___PRT_DEF_DTM_CSYS
 70
     0
 62
     7
  6
CONTINUOUS
370
    -3
390
801
  0
LAYER
  5
210
330
2
100
AcDbSymbolTableRecord
100
AcDbLayerTableRecord
  2
06_ALL_SURFS
 70
     0
 62
     7
  6
CONTINUOUS
370
    -3
390
801
  0
LAYER
  5
211
330
2
100
AcDbSymbolTableRecord
100
AcDbLayerTableRecord
  2
06__ASM_ALL_SURFS
 70
     0
 62
     7
  6
CONTINUOUS
370
    -3
390
801
  0
LAYER
  5
212
330
2
100
AcDbSymbolTableRecord
100
AcDbLayerTableRecord
  2
06___PRT_ALL_SURFS
 70
     0
 62
     7
  6
CONTINUOUS
370
    -3
390
801
  0
LAYER
  5
213
330
2
100
AcDbSymbolTableRecord
100
AcDbLayerTableRecord
  2
07__ASM_ALL_SKELETONS
 70
     0
 62
     7
  6
CONTINUOUS
370
    -3
390
801
  0
LAYER
  5
214
330
2
100
AcDbSymbolTableRecord
100
AcDbLayerTableRecord
  2
AXIS_PART
 70
     0
 62
     7
  6
CONTINUOUS
370
    -3
390
801
  0
LAYER
  5
215
330
2
100
AcDbSymbolTableRecord
100
AcDbLayerTableRecord
  2
COS_FEATURE
 70
     0
 62
     7
  6
CONTINUOUS
370
    -3
390
801
  0
LAYER
  5
216
330
2
100
AcDbSymbolTableRecord
100
AcDbLayerTableRecord
  2
CSYS_PART
 70
     0
 62
     7
  6
CONTINUOUS
370
    -3
390
801
  0
LAYER
  5
217
330
2
100
AcDbSymbolTableRecord
100
AcDbLayerTableRecord
  2
DATUM_PART
 70
     0
 62
     7
  6
CONTINUOUS
370
    -3
390
801
  0
LAYER
  5
218
330
2
100
AcDbSymbolTableRecord
100
AcDbLayerTableRecord
  2
DEF_DATUMS
 70
     0
 62
     7
  6
CONTINUOUS
370
    -3
390
801
  0
LAYER
  5
219
330
2
100
AcDbSymbolTableRecord
100
AcDbLayerTableRecord
  2
XSEC_DATUMS
 70
     0
 62
     7
  6
CONTINUOUS
370
    -3
390
801
  0
ENDTAB
  0
TABLE
  2
STYLE
  5
3
330
0
100
AcDbSymbolTable
 70
     2
  0
STYLE
  5
11
330
3
100
AcDbSymbolTableRecord
100
AcDbTextStyleTableRecord
  2
STANDARD
 70
     0
 40
0.0
 41
0.8
 50
0.0
 71
     0
 42
0.2
  3
txt
  4

  0
STYLE
  5
21A
330
3
100
AcDbSymbolTableRecord
100
AcDbTextStyleTableRecord
  2
TEXTSTYLE_1
 70
     0
 40
0.0
 41
0.8
 50
0.0
 71
     0
 42
0.2
  3
txt
  4

  0
ENDTAB
  0
TABLE
  2
VIEW
  5
6
330
0
100
AcDbSymbolTable
 70
     0
  0
ENDTAB
  0
TABLE
  2
UCS
  5
7
330
0
100
AcDbSymbolTable
 70
     0
  0
ENDTAB
  0
TABLE
  2
APPID
  5
9
330
0
100
AcDbSymbolTable
 70
     1
  0
APPID
  5
21B
330
9
100
AcDbSymbolTableRecord
100
AcDbRegAppTableRecord
  2
ACAD
 70
     0
  0
ENDTAB
  0
TABLE
  2
DIMSTYLE
  5
A
330
0
100
AcDbSymbolTable
 70
     3
100
AcDbDimStyleTable
 71
     0
  0
DIMSTYLE
105
21C
330
A
100
AcDbSymbolTableRecord
100
AcDbDimStyleTableRecord
  2
STANDARD
 70
     0
 41
0.1875
 47
0.02
 48
0.02
 71
     1
140
0.15625
271
     2
272
     2
340
11
341
21F
342
21F
343
21F
344
21F
  0
DIMSTYLE
105
21D
330
A
100
AcDbSymbolTableRecord
100
AcDbDimStyleTableRecord
  2
DIMSTYLE_1
 70
     0
 41
0.1875
 47
0.02
 48
0.02
140
0.15625
271
     2
272
     2
340
11
341
21F
342
21F
343
21F
344
21F
  0
DIMSTYLE
105
21E
330
A
100
AcDbSymbolTableRecord
100
AcDbDimStyleTableRecord
  2
DIMSTYLE_2
 70
     0
 41
0.1875
 47
0.005
 48
0.005
140
0.15625
271
     3
272
     3
340
11
341
21F
342
21F
343
21F
344
21F
  0
ENDTAB
  0
TABLE
  2
BLOCK_RECORD
  5
1
330
0
100
AcDbSymbolTable
 70
    13
  0
BLOCK_RECORD
  5
1B
330
1
100
AcDbSymbolTableRecord
100
AcDbBlockTableRecord
  2
*MODEL_SPACE
340
806
  0
BLOCK_RECORD
  5
1C
330
1
100
AcDbSymbolTableRecord
100
AcDbBlockTableRecord
  2
*PAPER_SPACE
340
807
  0
BLOCK_RECORD
  5
21F
330
1
100
AcDbSymbolTableRecord
100
AcDbBlockTableRecord
  2
_FILLED
340
0
102
{BLKREFS
331
235
331
236
331
242
331
243
331
24E
331
24F
331
25A
331
25B
331
266
331
267
331
272
331
273
331
27E
331
27F
331
289
331
295
331
296
331
2A1
331
2A2
331
2AE
331
2AF
331
2BB
331
2BC
331
812
331
813
331
81D
331
81E
331
827
331
828
331
832
331
833
331
83B
331
844
331
845
331
84E
331
84F
331
858
331
859
331
862
331
863
331
86C
331
86D
331
877
331
878
331
881
331
882
102
}
  0
BLOCK_RECORD
  5
220
330
1
100
AcDbSymbolTableRecord
100
AcDbBlockTableRecord
  2
*D1
340
0
  0
BLOCK_RECORD
  5
221
330
1
100
AcDbSymbolTableRecord
100
AcDbBlockTableRecord
  2
*D2
340
0
  0
BLOCK_RECORD
  5
222
330
1
100
AcDbSymbolTableRecord
100
AcDbBlockTableRecord
  2
*D3
340
0
  0
BLOCK_RECORD
  5
223
330
1
100
AcDbSymbolTableRecord
100
AcDbBlockTableRecord
  2
*D4
340
0
  0
BLOCK_RECORD
  5
224
330
1
100
AcDbSymbolTableRecord
100
AcDbBlockTableRecord
  2
*D5
340
0
  0
BLOCK_RECORD
  5
225
330
1
100
AcDbSymbolTableRecord
100
AcDbBlockTableRecord
  2
*D6
340
0
  0
BLOCK_RECORD
  5
226
330
1
100
AcDbSymbolTableRecord
100
AcDbBlockTableRecord
  2
*D7
340
0
  0
BLOCK_RECORD
  5
227
330
1
100
AcDbSymbolTableRecord
100
AcDbBlockTableRecord
  2
*D8
340
0
  0
BLOCK_RECORD
  5
228
330
1
100
AcDbSymbolTableRecord
100
AcDbBlockTableRecord
  2
*D9
340
0
  0
BLOCK_RECORD
  5
229
330
1
100
AcDbSymbolTableRecord
100
AcDbBlockTableRecord
  2
*D10
340
0
  0
BLOCK_RECORD
  5
22A
330
1
100
AcDbSymbolTableRecord
100
AcDbBlockTableRecord
  2
*D11
340
0
  0
BLOCK_RECORD
  5
22B
330
1
100
AcDbSymbolTableRecord
100
AcDbBlockTableRecord
  2
*D12
340
0
  0
ENDTAB
  0
ENDSEC
  0
SECTION
  2
BLOCKS
  0
BLOCK
  5
1E
330
1B
100
AcDbEntity
  8
0
100
AcDbBlockBegin
  2
*MODEL_SPACE
 70
     0
 10
0.0
 20
0.0
 30
0.0
  3
*MODEL_SPACE
  1

  0
ENDBLK
  5
1F
330
1B
100
AcDbEntity
  8
0
100
AcDbBlockEnd
  0
BLOCK
  5
20
330
1C
100
AcDbEntity
 67
     1
  8
0
100
AcDbBlockBegin
  2
*PAPER_SPACE
 70
     0
 10
0.0
 20
0.0
 30
0.0
  3
*PAPER_SPACE
  1

  0
ENDBLK
  5
21
330
1C
100
AcDbEntity
 67
     1
  8
0
100
AcDbBlockEnd
  0
BLOCK
  5
2BE
330
21F
100
AcDbEntity
  8
0
100
AcDbBlockBegin
  2
_FILLED
 70
     0
 10
0.0
 20
0.0
 30
0.0
  3
_FILLED
  1

  0
SOLID
  5
2BF
330
21F
100
AcDbEntity
  8
0
  6
ByBlock
 62
     0
100
AcDbTrace
 10
0.0
 20
0.0
 30
0.0
 11
-1.0
 21
0.1666666667
 31
0.0
 12
-1.0
 22
-0.1666666667
 32
0.0
 13
-1.0
 23
-0.1666666667
 33
0.0
  0
ENDBLK
  5
2C0
330
21F
100
AcDbEntity
  8
0
  6
ByBlock
 62
     0
100
AcDbBlockEnd
  0
BLOCK
  5
22C
330
220
100
AcDbEntity
  8
0
  6
Continuous
 62
     2
100
AcDbBlockBegin
  2
*D1
 70
     1
 10
0.0
 20
0.0
 30
0.0
  3
*D1
  1

  0
TEXT
  5
22D
330
220
100
AcDbEntity
  8
0
  6
Continuous
 62
     2
100
AcDbText
 10
6.8197365895
 20
15.1560262253
 30
0.0
 40
0.15625
  1
5.30
 41
0.8
100
AcDbText
  0
TEXT
  5
22E
330
220
100
AcDbEntity
  8
0
  6
Continuous
 62
     2
100
AcDbText
 10
6.9447365895
 20
14.9216512253
 30
0.0
 40
0.15625
  1
134,6
 41
0.8
100
AcDbText
  0
TEXT
  5
22F
330
220
100
AcDbEntity
  8
0
  6
Continuous
 62
     2
100
AcDbText
 10
6.8197365895
 20
14.9216512253
 30
0.0
 40
0.15625
  1
[
 41
0.8
100
AcDbText
  0
TEXT
  5
230
330
220
100
AcDbEntity
  8
0
  6
Continuous
 62
     2
100
AcDbText
 10
7.5697365895
 20
14.9216512253
 30
0.0
 40
0.15625
  1
]
 41
0.8
100
AcDbText
  0
LINE
  5
231
330
220
100
AcDbEntity
  8
0
  6
Continuous
 62
     2
100
AcDbLine
 10
4.327481023699999
 20
12.9371087493
 30
0.0
 11
4.327481023699999
 21
15.3591512253
 31
0.0
  0
LINE
  5
232
330
220
100
AcDbEntity
  8
0
  6
Continuous
 62
     2
100
AcDbLine
 10
9.627481023699999
 20
12.9371087493
 30
0.0
 11
9.627481023699999
 21
15.3591512253
 31
0.0
  0
LINE
  5
233
330
220
100
AcDbEntity
  8
0
  6
Continuous
 62
     2
100
AcDbLine
 10
4.327481023699999
 20
15.2341512253
 30
0.0
 11
6.7416115895
 21
15.2341512253
 31
0.0
  0
LINE
  5
234
330
220
100
AcDbEntity
  8
0
  6
Continuous
 62
     2
100
AcDbLine
 10
9.627481023699999
 20
15.2341512253
 30
0.0
 11
7.7728615895
 21
15.2341512253
 31
0.0
  0
INSERT
  5
235
330
220
100
AcDbEntity
  8
0
  6
Continuous
 62
     2
100
AcDbBlockReference
  2
_FILLED
 10
4.327481023699999
 20
15.2341512253
 30
0.0
 41
0.1875
 42
0.1875
 43
0.1875
 50
180.0
  0
INSERT
  5
236
330
220
100
AcDbEntity
  8
0
  6
Continuous
 62
     2
100
AcDbBlockReference
  2
_FILLED
 10
9.627481023699999
 20
15.2341512253
 30
0.0
 41
0.1875
 42
0.1875
 43
0.1875
  0
ENDBLK
  5
237
330
220
100
AcDbEntity
  8
0
  6
ByBlock
 62
     0
100
AcDbBlockEnd
  0
BLOCK
  5
238
330
221
100
AcDbEntity
  8
0
  6
Continuous
 62
     2
100
AcDbBlockBegin
  2
*D2
 70
     1
 10
0.0
 20
0.0
 30
0.0
  3
*D2
  1

  0
TEXT
  5
239
330
221
100
AcDbEntity
  8
0
  6
Continuous
 62
     2
100
AcDbText
 10
2.951138380099999
 20
13.9317917493
 30
0.0
 40
0.15625
  1
0.90
 41
0.8
100
AcDbText
  0
TEXT
  5
23A
330
221
100
AcDbEntity
  8
0
  6
Continuous
 62
     2
100
AcDbText
 10
3.076138380099999
 20
13.6974167493
 30
0.0
 40
0.15625
  1
22,86
 41
0.8
100
AcDbText
  0
TEXT
  5
23B
330
221
100
AcDbEntity
  8
0
  6
Continuous
 62
     2
100
AcDbText
 10
2.951138380099999
 20
13.6974167493
 30
0.0
 40
0.15625
  1
[
 41
0.8
100
AcDbText
  0
TEXT
  5
23C
330
221
100
AcDbEntity
  8
0
  6
Continuous
 62
     2
100
AcDbText
 10
3.701138380099999
 20
13.6974167493
 30
0.0
 40
0.15625
  1
]
 41
0.8
100
AcDbText
  0
LINE
  5
23D
330
221
100
AcDbEntity
  8
0
  6
Continuous
 62
     2
100
AcDbLine
 10
4.327481023699999
 20
12.9371087493
 30
0.0
 11
4.327481023699999
 21
14.1349167493
 31
0.0
  0
LINE
  5
23E
330
221
100
AcDbEntity
  8
0
  6
Continuous
 62
     2
100
AcDbLine
 10
5.2274810237
 20
12.1016087493
 30
0.0
 11
5.2274810237
 21
14.1349167493
 31
0.0
  0
LINE
  5
23F
330
221
100
AcDbEntity
  8
0
  6
Continuous
 62
     2
100
AcDbLine
 10
4.327481023699999
 20
14.0099167493
 30
0.0
 11
4.7774810237
 21
14.0099167493
 31
0.0
  0
LINE
  5
240
330
221
100
AcDbEntity
  8
0
  6
Continuous
 62
     2
100
AcDbLine
 10
4.7774810237
 20
14.0099167493
 30
0.0
 11
3.904263380099999
 21
14.0099167493
 31
0.0
  0
LINE
  5
241
330
221
100
AcDbEntity
  8
0
  6
Continuous
 62
     2
100
AcDbLine
 10
5.2274810237
 20
14.0099167493
 30
0.0
 11
4.7774810237
 21
14.0099167493
 31
0.0
  0
INSERT
  5
242
330
221
100
AcDbEntity
  8
0
  6
Continuous
 62
     2
100
AcDbBlockReference
  2
_FILLED
 10
4.327481023699999
 20
14.0099167493
 30
0.0
 41
0.1875
 42
0.1875
 43
0.1875
 50
180.0
  0
INSERT
  5
243
330
221
100
AcDbEntity
  8
0
  6
Continuous
 62
     2
100
AcDbBlockReference
  2
_FILLED
 10
5.2274810237
 20
14.0099167493
 30
0.0
 41
0.1875
 42
0.1875
 43
0.1875
  0
ENDBLK
  5
244
330
221
100
AcDbEntity
  8
0
  6
ByBlock
 62
     0
100
AcDbBlockEnd
  0
BLOCK
  5
245
330
222
100
AcDbEntity
  8
0
  6
Continuous
 62
     2
100
AcDbBlockBegin
  2
*D3
 70
     1
 10
0.0
 20
0.0
 30
0.0
  3
*D3
  1

  0
TEXT
  5
246
330
222
100
AcDbEntity
  8
0
  6
Continuous
 62
     2
100
AcDbText
 10
6.6685178584
 20
13.8836519232
 30
0.0
 40
0.15625
  1
3.50
 41
0.8
100
AcDbText
  0
TEXT
  5
247
330
222
100
AcDbEntity
  8
0
  6
Continuous
 62
     2
100
AcDbText
 10
6.7935178584
 20
13.6492769232
 30
0.0
 40
0.15625
  1
88,9
 41
0.8
100
AcDbText
  0
TEXT
  5
248
330
222
100
AcDbEntity
  8
0
  6
Continuous
 62
     2
100
AcDbText
 10
6.6685178584
 20
13.6492769232
 30
0.0
 40
0.15625
  1
[
 41
0.8
100
AcDbText
  0
TEXT
  5
249
330
222
100
AcDbEntity
  8
0
  6
Continuous
 62
     2
100
AcDbText
 10
7.2935178584
 20
13.6492769232
 30
0.0
 40
0.15625
  1
]
 41
0.8
100
AcDbText
  0
LINE
  5
24A
330
222
100
AcDbEntity
  8
0
  6
Continuous
 62
     2
100
AcDbLine
 10
5.2274810237
 20
12.1016087493
 30
0.0
 11
5.2274810237
 21
14.0867769232
 31
0.0
  0
LINE
  5
24B
330
222
100
AcDbEntity
  8
0
  6
Continuous
 62
     2
100
AcDbLine
 10
8.727481023699999
 20
12.1016087493
 30
0.0
 11
8.727481023699999
 21
14.0867769232
 31
0.0
  0
LINE
  5
24C
330
222
100
AcDbEntity
  8
0
  6
Continuous
 62
     2
100
AcDbLine
 10
5.2274810237
 20
13.9617769232
 30
0.0
 11
6.5903928584
 21
13.9617769232
 31
0.0
  0
LINE
  5
24D
330
222
100
AcDbEntity
  8
0
  6
Continuous
 62
     2
100
AcDbLine
 10
8.727481023699999
 20
13.9617769232
 30
0.0
 11
7.4966428584
 21
13.9617769232
 31
0.0
  0
INSERT
  5
24E
330
222
100
AcDbEntity
  8
0
  6
Continuous
 62
     2
100
AcDbBlockReference
  2
_FILLED
 10
5.2274810237
 20
13.9617769232
 30
0.0
 41
0.1875
 42
0.1875
 43
0.1875
 50
180.0
  0
INSERT
  5
24F
330
222
100
AcDbEntity
  8
0
  6
Continuous
 62
     2
100
AcDbBlockReference
  2
_FILLED
 10
8.727481023699999
 20
13.9617769232
 30
0.0
 41
0.1875
 42
0.1875
 43
0.1875
  0
ENDBLK
  5
250
330
222
100
AcDbEntity
  8
0
  6
ByBlock
 62
     0
100
AcDbBlockEnd
  0
BLOCK
  5
251
330
223
100
AcDbEntity
  8
0
  6
Continuous
 62
     2
100
AcDbBlockBegin
  2
*D4
 70
     1
 10
0.0
 20
0.0
 30
0.0
  3
*D4
  1

  0
TEXT
  5
252
330
223
100
AcDbEntity
  8
0
  6
Continuous
 62
     2
100
AcDbText
 10
6.0513530275
 20
2.307768019799999
 30
0.0
 40
0.15625
  1
2.75
 41
0.8
100
AcDbText
  0
TEXT
  5
253
330
223
100
AcDbEntity
  8
0
  6
Continuous
 62
     2
100
AcDbText
 10
6.1763530275
 20
2.073393019799999
 30
0.0
 40
0.15625
  1
69,9
 41
0.8
100
AcDbText
  0
TEXT
  5
254
330
223
100
AcDbEntity
  8
0
  6
Continuous
 62
     2
100
AcDbText
 10
6.0513530275
 20
2.073393019799999
 30
0.0
 40
0.15625
  1
[
 41
0.8
100
AcDbText
  0
TEXT
  5
255
330
223
100
AcDbEntity
  8
0
  6
Continuous
 62
     2
100
AcDbText
 10
6.6763530275
 20
2.073393019799999
 30
0.0
 40
0.15625
  1
]
 41
0.8
100
AcDbText
  0
LINE
  5
256
330
223
100
AcDbEntity
  8
0
  6
Continuous
 62
     2
100
AcDbLine
 10
5.2274810237
 20
3.9766087493
 30
0.0
 11
5.2274810237
 21
2.260893019799999
 31
0.0
  0
LINE
  5
257
330
223
100
AcDbEntity
  8
0
  6
Continuous
 62
     2
100
AcDbLine
 10
7.9774810237
 20
3.9766087493
 30
0.0
 11
7.9774810237
 21
2.260893019799999
 31
0.0
  0
LINE
  5
258
330
223
100
AcDbEntity
  8
0
  6
Continuous
 62
     2
100
AcDbLine
 10
5.2274810237
 20
2.385893019799999
 30
0.0
 11
5.9732280275
 21
2.385893019799999
 31
0.0
  0
LINE
  5
259
330
223
100
AcDbEntity
  8
0
  6
Continuous
 62
     2
100
AcDbLine
 10
7.9774810237
 20
2.385893019799999
 30
0.0
 11
6.8794780275
 21
2.385893019799999
 31
0.0
  0
INSERT
  5
25A
330
223
100
AcDbEntity
  8
0
  6
Continuous
 62
     2
100
AcDbBlockReference
  2
_FILLED
 10
5.2274810237
 20
2.385893019799999
 30
0.0
 41
0.1875
 42
0.1875
 43
0.1875
 50
180.0
  0
INSERT
  5
25B
330
223
100
AcDbEntity
  8
0
  6
Continuous
 62
     2
100
AcDbBlockReference
  2
_FILLED
 10
7.9774810237
 20
2.385893019799999
 30
0.0
 41
0.1875
 42
0.1875
 43
0.1875
  0
ENDBLK
  5
25C
330
223
100
AcDbEntity
  8
0
  6
ByBlock
 62
     0
100
AcDbBlockEnd
  0
BLOCK
  5
25D
330
224
100
AcDbEntity
  8
0
  6
Continuous
 62
     2
100
AcDbBlockBegin
  2
*D5
 70
     1
 10
0.0
 20
0.0
 30
0.0
  3
*D5
  1

  0
TEXT
  5
25E
330
224
100
AcDbEntity
  8
0
  6
Continuous
 62
     2
100
AcDbText
 10
1.9514677618
 20
8.178579614
 30
0.0
 40
0.15625
  1
9.50
 41
0.8
100
AcDbText
  0
TEXT
  5
25F
330
224
100
AcDbEntity
  8
0
  6
Continuous
 62
     2
100
AcDbText
 10
2.0764677618
 20
7.944204613999999
 30
0.0
 40
0.15625
  1
241,3
 41
0.8
100
AcDbText
  0
TEXT
  5
260
330
224
100
AcDbEntity
  8
0
  6
Continuous
 62
     2
100
AcDbText
 10
1.9514677618
 20
7.944204613999999
 30
0.0
 40
0.15625
  1
[
 41
0.8
100
AcDbText
  0
TEXT
  5
261
330
224
100
AcDbEntity
  8
0
  6
Continuous
 62
     2
100
AcDbText
 10
2.7014677618
 20
7.944204613999999
 30
0.0
 40
0.15625
  1
]
 41
0.8
100
AcDbText
  0
LINE
  5
262
330
224
100
AcDbEntity
  8
0
  6
Continuous
 62
     2
100
AcDbLine
 10
6.1549810237
 20
13.0391087493
 30
0.0
 11
2.2639677618
 21
13.0391087493
 31
0.0
  0
LINE
  5
263
330
224
100
AcDbEntity
  8
0
  6
Continuous
 62
     2
100
AcDbLine
 10
4.4149810237
 20
3.539108749299999
 30
0.0
 11
2.2639677618
 21
3.539108749299999
 31
0.0
  0
LINE
  5
264
330
224
100
AcDbEntity
  8
0
  6
Continuous
 62
     2
100
AcDbLine
 10
2.3889677618
 20
13.0391087493
 30
0.0
 11
2.3889677618
 21
8.412954614
 31
0.0
  0
LINE
  5
265
330
224
100
AcDbEntity
  8
0
  6
Continuous
 62
     2
100
AcDbLine
 10
2.3889677618
 20
3.539108749299999
 30
0.0
 11
2.3889677618
 21
7.866079613999999
 31
0.0
  0
INSERT
  5
266
330
224
100
AcDbEntity
  8
0
  6
Continuous
 62
     2
100
AcDbBlockReference
  2
_FILLED
 10
2.3889677618
 20
13.0391087493
 30
0.0
 41
0.1875
 42
0.1875
 43
0.1875
 50
90.0
  0
INSERT
  5
267
330
224
100
AcDbEntity
  8
0
  6
Continuous
 62
     2
100
AcDbBlockReference
  2
_FILLED
 10
2.3889677618
 20
3.539108749299999
 30
0.0
 41
0.1875
 42
0.1875
 43
0.1875
 50
270.0
  0
ENDBLK
  5
268
330
224
100
AcDbEntity
  8
0
  6
ByBlock
 62
     0
100
AcDbBlockEnd
  0
BLOCK
  5
269
330
225
100
AcDbEntity
  8
0
  6
Continuous
 62
     2
100
AcDbBlockBegin
  2
*D6
 70
     1
 10
0.0
 20
0.0
 30
0.0
  3
*D6
  1

  0
TEXT
  5
26A
330
225
100
AcDbEntity
  8
0
  6
Continuous
 62
     2
100
AcDbText
 10
2.715417037099999
 20
12.6210916913
 30
0.0
 40
0.15625
  1
1.00
 41
0.8
100
AcDbText
  0
TEXT
  5
26B
330
225
100
AcDbEntity
  8
0
  6
Continuous
 62
     2
100
AcDbText
 10
2.840417037099999
 20
12.3867166913
 30
0.0
 40
0.15625
  1
25,4
 41
0.8
100
AcDbText
  0
TEXT
  5
26C
330
225
100
AcDbEntity
  8
0
  6
Continuous
 62
     2
100
AcDbText
 10
2.715417037099999
 20
12.3867166913
 30
0.0
 40
0.15625
  1
[
 41
0.8
100
AcDbText
  0
TEXT
  5
26D
330
225
100
AcDbEntity
  8
0
  6
Continuous
 62
     2
100
AcDbText
 10
3.340417037099999
 20
12.3867166913
 30
0.0
 40
0.15625
  1
]
 41
0.8
100
AcDbText
  0
LINE
  5
26E
330
225
100
AcDbEntity
  8
0
  6
Continuous
 62
     2
100
AcDbLine
 10
9.414981023699999
 20
13.0391087493
 30
0.0
 11
2.965417037099999
 21
13.0391087493
 31
0.0
  0
LINE
  5
26F
330
225
100
AcDbEntity
  8
0
  6
Continuous
 62
     2
100
AcDbLine
 10
5.1851028534
 20
12.0391087493
 30
0.0
 11
2.965417037099999
 21
12.0391087493
 31
0.0
  0
LINE
  5
270
330
225
100
AcDbEntity
  8
0
  6
Continuous
 62
     2
100
AcDbLine
 10
3.090417037099999
 20
13.0391087493
 30
0.0
 11
3.090417037099999
 21
13.3391087493
 31
0.0
  0
LINE
  5
271
330
225
100
AcDbEntity
  8
0
  6
Continuous
 62
     2
100
AcDbLine
 10
3.090417037099999
 20
12.0391087493
 30
0.0
 11
3.090417037099999
 21
11.7391087493
 31
0.0
  0
INSERT
  5
272
330
225
100
AcDbEntity
  8
0
  6
Continuous
 62
     2
100
AcDbBlockReference
  2
_FILLED
 10
3.090417037099999
 20
13.0391087493
 30
0.0
 41
0.1875
 42
0.1875
 43
0.1875
 50
270.0
  0
INSERT
  5
273
330
225
100
AcDbEntity
  8
0
  6
Continuous
 62
     2
100
AcDbBlockReference
  2
_FILLED
 10
3.090417037099999
 20
12.0391087493
 30
0.0
 41
0.1875
 42
0.1875
 43
0.1875
 50
90.0
  0
ENDBLK
  5
274
330
225
100
AcDbEntity
  8
0
  6
ByBlock
 62
     0
100
AcDbBlockEnd
  0
BLOCK
  5
275
330
226
100
AcDbEntity
  8
0
  6
Continuous
 62
     2
100
AcDbBlockBegin
  2
*D7
 70
     1
 10
0.0
 20
0.0
 30
0.0
  3
*D7
  1

  0
TEXT
  5
276
330
226
100
AcDbEntity
  8
0
  6
Continuous
 62
     2
100
AcDbText
 10
3.0780378101
 20
7.434618261399999
 30
0.0
 40
0.15625
  1
7.50
 41
0.8
100
AcDbText
  0
TEXT
  5
277
330
226
100
AcDbEntity
  8
0
  6
Continuous
 62
     2
100
AcDbText
 10
3.2030378101
 20
7.200243261399999
 30
0.0
 40
0.15625
  1
190,5
 41
0.8
100
AcDbText
  0
TEXT
  5
278
330
226
100
AcDbEntity
  8
0
  6
Continuous
 62
     2
100
AcDbText
 10
3.0780378101
 20
7.200243261399999
 30
0.0
 40
0.15625
  1
[
 41
0.8
100
AcDbText
  0
TEXT
  5
279
330
226
100
AcDbEntity
  8
0
  6
Continuous
 62
     2
100
AcDbText
 10
3.8280378101
 20
7.200243261399999
 30
0.0
 40
0.15625
  1
]
 41
0.8
100
AcDbText
  0
LINE
  5
27A
330
226
100
AcDbEntity
  8
0
  6
Continuous
 62
     2
100
AcDbLine
 10
5.210906486199999
 20
4.5391087493
 30
0.0
 11
3.3905378101
 21
4.5391087493
 31
0.0
  0
LINE
  5
27B
330
226
100
AcDbEntity
  8
0
  6
Continuous
 62
     2
100
AcDbLine
 10
5.167900431499999
 20
12.0391087493
 30
0.0
 11
3.3905378101
 21
12.0391087493
 31
0.0
  0
LINE
  5
27C
330
226
100
AcDbEntity
  8
0
  6
Continuous
 62
     2
100
AcDbLine
 10
3.5155378101
 20
4.5391087493
 30
0.0
 11
3.5155378101
 21
7.122118261399999
 31
0.0
  0
LINE
  5
27D
330
226
100
AcDbEntity
  8
0
  6
Continuous
 62
     2
100
AcDbLine
 10
3.5155378101
 20
12.0391087493
 30
0.0
 11
3.5155378101
 21
7.668993261399999
 31
0.0
  0
INSERT
  5
27E
330
226
100
AcDbEntity
  8
0
  6
Continuous
 62
     2
100
AcDbBlockReference
  2
_FILLED
 10
3.5155378101
 20
4.5391087493
 30
0.0
 41
0.1875
 42
0.1875
 43
0.1875
 50
270.0
  0
INSERT
  5
27F
330
226
100
AcDbEntity
  8
0
  6
Continuous
 62
     2
100
AcDbBlockReference
  2
_FILLED
 10
3.5155378101
 20
12.0391087493
 30
0.0
 41
0.1875
 42
0.1875
 43
0.1875
 50
90.0
  0
ENDBLK
  5
280
330
226
100
AcDbEntity
  8
0
  6
ByBlock
 62
     0
100
AcDbBlockEnd
  0
BLOCK
  5
281
330
227
100
AcDbEntity
  8
0
  6
Continuous
 62
     2
100
AcDbBlockBegin
  2
*D8
 70
     1
 10
0.0
 20
0.0
 30
0.0
  3
*D8
  1

  0
TEXT
  5
282
330
227
100
AcDbEntity
  8
0
  6
Continuous
 62
     2
100
AcDbText
 10
10.6363356013
 20
5.751669764099999
 30
0.0
 40
0.15625
  1
%%c
 41
1.333333333299999
100
AcDbText
  0
TEXT
  5
283
330
227
100
AcDbEntity
  8
0
  6
Continuous
 62
     2
100
AcDbText
 10
10.8446689346
 20
5.751669764099999
 30
0.0
 40
0.15625
  1
0.313
 41
0.8
100
AcDbText
  0
TEXT
  5
284
330
227
100
AcDbEntity
  8
0
  6
Continuous
 62
     2
100
AcDbText
 10
10.9696689346
 20
5.517294764099999
 30
0.0
 40
0.15625
  1
7,94
 41
0.8
100
AcDbText
  0
TEXT
  5
285
330
227
100
AcDbEntity
  8
0
  6
Continuous
 62
     2
100
AcDbText
 10
10.8446689346
 20
5.517294764099999
 30
0.0
 40
0.15625
  1
[
 41
0.8
100
AcDbText
  0
TEXT
  5
286
330
227
100
AcDbEntity
  8
0
  6
Continuous
 62
     2
100
AcDbText
 10
11.4696689346
 20
5.517294764099999
 30
0.0
 40
0.15625
  1
]
 41
0.8
100
AcDbText
  0
LINE
  5
287
330
227
100
AcDbEntity
  8
0
  6
Continuous
 62
     2
100
AcDbLine
 10
8.1152068375
 20
4.6129034829
 30
0.0
 11
10.3863356013
 21
5.829794764099999
 31
0.0
  0
LINE
  5
288
330
227
100
AcDbEntity
  8
0
  6
Continuous
 62
     2
100
AcDbLine
 10
10.3863356013
 20
5.829794764099999
 30
0.0
 11
10.5582106013
 21
5.829794764099999
 31
0.0
  0
INSERT
  5
289
330
227
100
AcDbEntity
  8
0
  6
Continuous
 62
     2
100
AcDbBlockReference
  2
_FILLED
 10
8.1152068375
 20
4.6129034829
 30
0.0
 41
0.1875
 42
0.1875
 43
0.1875
 50
208.182808
  0
ENDBLK
  5
28A
330
227
100
AcDbEntity
  8
0
  6
ByBlock
 62
     0
100
AcDbBlockEnd
  0
BLOCK
  5
28B
330
228
100
AcDbEntity
  8
0
  6
Continuous
 62
     2
100
AcDbBlockBegin
  2
*D9
 70
     1
 10
0.0
 20
0.0
 30
0.0
  3
*D9
  1

  0
TEXT
  5
28C
330
228
100
AcDbEntity
  8
0
  6
Continuous
 62
     2
100
AcDbText
 10
9.9172009115
 20
2.930929786
 30
0.0
 40
0.15625
  1
%%c
 41
1.333333333299999
100
AcDbText
  0
TEXT
  5
28D
330
228
100
AcDbEntity
  8
0
  6
Continuous
 62
     2
100
AcDbText
 10
10.1255342448
 20
2.930929786
 30
0.0
 40
0.15625
  1
0.625
 41
0.8
100
AcDbText
  0
TEXT
  5
28E
330
228
100
AcDbEntity
  8
0
  6
Continuous
 62
     2
100
AcDbText
 10
10.2505342448
 20
2.696554786
 30
0.0
 40
0.15625
  1
15,88
 41
0.8
100
AcDbText
  0
TEXT
  5
28F
330
228
100
AcDbEntity
  8
0
  6
Continuous
 62
     2
100
AcDbText
 10
10.1255342448
 20
2.696554786
 30
0.0
 40
0.15625
  1
[
 41
0.8
100
AcDbText
  0
TEXT
  5
290
330
228
100
AcDbEntity
  8
0
  6
Continuous
 62
     2
100
AcDbText
 10
10.8755342448
 20
2.696554786
 30
0.0
 40
0.15625
  1
]
 41
0.8
100
AcDbText
  0
LINE
  5
291
330
228
100
AcDbEntity
  8
0
  6
Continuous
 62
     2
100
AcDbLine
 10
8.2443107902
 20
3.87644921
 30
0.0
 11
7.9774810237
 21
4.0391087493
 31
0.0
  0
LINE
  5
292
330
228
100
AcDbEntity
  8
0
  6
Continuous
 62
     2
100
AcDbLine
 10
7.9774810237
 20
4.0391087493
 30
0.0
 11
9.6672009115
 21
3.009054786
 31
0.0
  0
LINE
  5
293
330
228
100
AcDbEntity
  8
0
  6
Continuous
 62
     2
100
AcDbLine
 10
9.6672009115
 20
3.009054786
 30
0.0
 11
9.8390759115
 21
3.009054786
 31
0.0
  0
LINE
  5
294
330
228
100
AcDbEntity
  8
0
  6
Continuous
 62
     2
100
AcDbLine
 10
7.7106512572
 20
4.2017682886
 30
0.0
 11
7.9774810237
 21
4.0391087493
 31
0.0
  0
INSERT
  5
295
330
228
100
AcDbEntity
  8
0
  6
Continuous
 62
     2
100
AcDbBlockReference
  2
_FILLED
 10
8.2443107902
 20
3.87644921
 30
0.0
 41
0.1875
 42
0.1875
 43
0.1875
 50
328.633497
  0
INSERT
  5
296
330
228
100
AcDbEntity
  8
0
  6
Continuous
 62
     2
100
AcDbBlockReference
  2
_FILLED
 10
7.7106512572
 20
4.2017682886
 30
0.0
 41
0.1875
 42
0.1875
 43
0.1875
 50
148.633497
  0
ENDBLK
  5
297
330
228
100
AcDbEntity
  8
0
  6
ByBlock
 62
     0
100
AcDbBlockEnd
  0
BLOCK
  5
298
330
229
100
AcDbEntity
  8
0
  6
Continuous
 62
     2
100
AcDbBlockBegin
  2
*D10
 70
     1
 10
0.0
 20
0.0
 30
0.0
  3
*D10
  1

  0
TEXT
  5
299
330
229
100
AcDbEntity
  8
0
  6
Continuous
 62
     2
100
AcDbText
 10
17.0833769245
 20
14.7152484949
 30
0.0
 40
0.15625
  1
1.00
 41
0.8
100
AcDbText
  0
TEXT
  5
29A
330
229
100
AcDbEntity
  8
0
  6
Continuous
 62
     2
100
AcDbText
 10
17.2083769245
 20
14.4808734949
 30
0.0
 40
0.15625
  1
25,4
 41
0.8
100
AcDbText
  0
TEXT
  5
29B
330
229
100
AcDbEntity
  8
0
  6
Continuous
 62
     2
100
AcDbText
 10
17.0833769245
 20
14.4808734949
 30
0.0
 40
0.15625
  1
[
 41
0.8
100
AcDbText
  0
TEXT
  5
29C
330
229
100
AcDbEntity
  8
0
  6
Continuous
 62
     2
100
AcDbText
 10
17.7083769245
 20
14.4808734949
 30
0.0
 40
0.15625
  1
]
 41
0.8
100
AcDbText
  0
LINE
  5
29D
330
229
100
AcDbEntity
  8
0
  6
Continuous
 62
     2
100
AcDbLine
 10
16.9510869565
 20
13.1016087493
 30
0.0
 11
16.9510869565
 21
14.9183734949
 31
0.0
  0
LINE
  5
29E
330
229
100
AcDbEntity
  8
0
  6
Continuous
 62
     2
100
AcDbLine
 10
17.9510869565
 20
12.9371087493
 30
0.0
 11
17.9510869565
 21
14.9183734949
 31
0.0
  0
LINE
  5
29F
330
229
100
AcDbEntity
  8
0
  6
Continuous
 62
     2
100
AcDbLine
 10
16.9510869565
 20
14.7933734949
 30
0.0
 11
16.6510869565
 21
14.7933734949
 31
0.0
  0
LINE
  5
2A0
330
229
100
AcDbEntity
  8
0
  6
Continuous
 62
     2
100
AcDbLine
 10
17.9510869565
 20
14.7933734949
 30
0.0
 11
18.2510869565
 21
14.7933734949
 31
0.0
  0
INSERT
  5
2A1
330
229
100
AcDbEntity
  8
0
  6
Continuous
 62
     2
100
AcDbBlockReference
  2
_FILLED
 10
16.9510869565
 20
14.7933734949
 30
0.0
 41
0.1875
 42
0.1875
 43
0.1875
  0
INSERT
  5
2A2
330
229
100
AcDbEntity
  8
0
  6
Continuous
 62
     2
100
AcDbBlockReference
  2
_FILLED
 10
17.9510869565
 20
14.7933734949
 30
0.0
 41
0.1875
 42
0.1875
 43
0.1875
 50
180.0
  0
ENDBLK
  5
2A3
330
229
100
AcDbEntity
  8
0
  6
ByBlock
 62
     0
100
AcDbBlockEnd
  0
BLOCK
  5
2A4
330
22A
100
AcDbEntity
  8
0
  6
Continuous
 62
     2
100
AcDbBlockBegin
  2
*D11
 70
     1
 10
0.0
 20
0.0
 30
0.0
  3
*D11
  1

  0
TEXT
  5
2A5
330
22A
100
AcDbEntity
  8
0
  6
Continuous
 62
     2
100
AcDbText
 10
18.4589780097
 20
13.8456825675
 30
0.0
 40
0.15625
  1
0.49
 41
0.8
100
AcDbText
  0
TEXT
  5
2A6
330
22A
100
AcDbEntity
  8
0
  6
Continuous
 62
     2
100
AcDbText
 10
18.5839780097
 20
13.6113075675
 30
0.0
 40
0.15625
  1
12,6
 41
0.8
100
AcDbText
  0
TEXT
  5
2A7
330
22A
100
AcDbEntity
  8
0
  6
Continuous
 62
     2
100
AcDbText
 10
18.4589780097
 20
13.6113075675
 30
0.0
 40
0.15625
  1
[
 41
0.8
100
AcDbText
  0
TEXT
  5
2A8
330
22A
100
AcDbEntity
  8
0
  6
Continuous
 62
     2
100
AcDbText
 10
19.0839780097
 20
13.6113075675
 30
0.0
 40
0.15625
  1
]
 41
0.8
100
AcDbText
  0
LINE
  5
2A9
330
22A
100
AcDbEntity
  8
0
  6
Continuous
 62
     2
100
AcDbLine
 10
17.9510869565
 20
12.9371087493
 30
0.0
 11
17.9510869565
 21
14.0488075675
 31
0.0
  0
LINE
  5
2AA
330
22A
100
AcDbEntity
  8
0
  6
Continuous
 62
     2
100
AcDbLine
 10
17.4564869565
 20
12.2443051696
 30
0.0
 11
17.4564869565
 21
14.0488075675
 31
0.0
  0
LINE
  5
2AB
330
22A
100
AcDbEntity
  8
0
  6
Continuous
 62
     2
100
AcDbLine
 10
17.9510869565
 20
13.9238075675
 30
0.0
 11
17.7037869565
 21
13.9238075675
 31
0.0
  0
LINE
  5
2AC
330
22A
100
AcDbEntity
  8
0
  6
Continuous
 62
     2
100
AcDbLine
 10
17.7037869565
 20
13.9238075675
 30
0.0
 11
18.3808530097
 21
13.9238075675
 31
0.0
  0
LINE
  5
2AD
330
22A
100
AcDbEntity
  8
0
  6
Continuous
 62
     2
100
AcDbLine
 10
17.4564869565
 20
13.9238075675
 30
0.0
 11
17.7037869565
 21
13.9238075675
 31
0.0
  0
INSERT
  5
2AE
330
22A
100
AcDbEntity
  8
0
  6
Continuous
 62
     2
100
AcDbBlockReference
  2
_FILLED
 10
17.9510869565
 20
13.9238075675
 30
0.0
 41
0.1875
 42
0.1875
 43
0.1875
  0
INSERT
  5
2AF
330
22A
100
AcDbEntity
  8
0
  6
Continuous
 62
     2
100
AcDbBlockReference
  2
_FILLED
 10
17.4564869565
 20
13.9238075675
 30
0.0
 41
0.1875
 42
0.1875
 43
0.1875
 50
180.0
  0
ENDBLK
  5
2B0
330
22A
100
AcDbEntity
  8
0
  6
ByBlock
 62
     0
100
AcDbBlockEnd
  0
BLOCK
  5
2B1
330
22B
100
AcDbEntity
  8
0
  6
Continuous
 62
     2
100
AcDbBlockBegin
  2
*D12
 70
     1
 10
0.0
 20
0.0
 30
0.0
  3
*D12
  1

  0
TEXT
  5
2B2
330
22B
100
AcDbEntity
  8
0
  6
Continuous
 62
     2
100
AcDbText
 10
16.1760022457
 20
2.7706779629
 30
0.0
 40
0.15625
  1
0.49
 41
0.8
100
AcDbText
  0
TEXT
  5
2B3
330
22B
100
AcDbEntity
  8
0
  6
Continuous
 62
     2
100
AcDbText
 10
16.3010022457
 20
2.536302962899999
 30
0.0
 40
0.15625
  1
12,4
 41
0.8
100
AcDbText
  0
TEXT
  5
2B4
330
22B
100
AcDbEntity
  8
0
  6
Continuous
 62
     2
100
AcDbText
 10
16.1760022457
 20
2.536302962899999
 30
0.0
 40
0.15625
  1
[
 41
0.8
100
AcDbText
  0
TEXT
  5
2B5
330
22B
100
AcDbEntity
  8
0
  6
Continuous
 62
     2
100
AcDbText
 10
16.8010022457
 20
2.536302962899999
 30
0.0
 40
0.15625
  1
]
 41
0.8
100
AcDbText
  0
LINE
  5
2B6
330
22B
100
AcDbEntity
  8
0
  6
Continuous
 62
     2
100
AcDbLine
 10
17.4643869565
 20
5.1766327561
 30
0.0
 11
17.4643869565
 21
2.7238029629
 31
0.0
  0
LINE
  5
2B7
330
22B
100
AcDbEntity
  8
0
  6
Continuous
 62
     2
100
AcDbLine
 10
17.9510869565
 20
3.626608749299999
 30
0.0
 11
17.9510869565
 21
2.7238029629
 31
0.0
  0
LINE
  5
2B8
330
22B
100
AcDbEntity
  8
0
  6
Continuous
 62
     2
100
AcDbLine
 10
17.4643869565
 20
2.8488029629
 30
0.0
 11
17.7077369565
 21
2.8488029629
 31
0.0
  0
LINE
  5
2B9
330
22B
100
AcDbEntity
  8
0
  6
Continuous
 62
     2
100
AcDbLine
 10
17.7077369565
 20
2.8488029629
 30
0.0
 11
17.0041272457
 21
2.8488029629
 31
0.0
  0
LINE
  5
2BA
330
22B
100
AcDbEntity
  8
0
  6
Continuous
 62
     2
100
AcDbLine
 10
17.9510869565
 20
2.8488029629
 30
0.0
 11
17.7077369565
 21
2.8488029629
 31
0.0
  0
INSERT
  5
2BB
330
22B
100
AcDbEntity
  8
0
  6
Continuous
 62
     2
100
AcDbBlockReference
  2
_FILLED
 10
17.4643869565
 20
2.8488029629
 30
0.0
 41
0.1875
 42
0.1875
 43
0.1875
 50
180.0
  0
INSERT
  5
2BC
330
22B
100
AcDbEntity
  8
0
  6
Continuous
 62
     2
100
AcDbBlockReference
  2
_FILLED
 10
17.9510869565
 20
2.8488029629
 30
0.0
 41
0.1875
 42
0.1875
 43
0.1875
  0
ENDBLK
  5
2BD
330
22B
100
AcDbEntity
  8
0
  6
ByBlock
 62
     0
100
AcDbBlockEnd
  0
ENDSEC
  0
SECTION
  2
ENTITIES
  0
TEXT
  5
2CD
330
1B
100
AcDbEntity
  8
0
  6
Continuous
 62
     0
100
AcDbText
 10
12.5132472826
 20
11.1997282609
 30
0.0
 40
0.25
  1
2094-PRS1
 41
0.6592592593
  7
TEXTSTYLE_1
100
AcDbText
  0
LINE
  5
2CE
330
1B
100
AcDbEntity
  8
0
  6
Continuous
 62
     0
100
AcDbLine
 10
4.3672263972
 20
11.0391087493
 30
0.0
 11
4.3677732856
 21
11.0396556377
 31
0.0
  0
LINE
  5
2CF
330
1B
100
AcDbEntity
  8
0
  6
Continuous
 62
     0
100
AcDbLine
 10
4.327481023699999
 20
3.689108749299999
 30
0.0
 11
4.327481023699999
 21
13.0391087493
 31
0.0
  0
LINE
  5
2D0
330
1B
100
AcDbEntity
  8
0
  6
Continuous
 62
     0
100
AcDbLine
 10
4.3677732856
 20
11.0396556377
 30
0.0
 11
4.3685629378
 21
11.3356193172
 31
0.0
  0
LINE
  5
2D1
330
1B
100
AcDbEntity
  8
0
  6
Continuous
 62
     0
100
AcDbLine
 10
4.3682561272
 20
12.4136566336
 30
0.0
 11
4.367234405599999
 21
12.6373553673
 31
0.0
  0
LINE
  5
2D2
330
1B
100
AcDbEntity
  8
0
  6
Continuous
 62
     0
100
AcDbLine
 10
4.3649855412
 20
5.1044870935
 30
0.0
 11
4.364979983899999
 21
5.7190870935
 31
0.0
  0
LINE
  5
2D3
330
1B
100
AcDbEntity
  8
0
  6
Continuous
 62
     0
100
AcDbLine
 10
4.3654810237
 20
5.724174707
 30
0.0
 11
4.3654810237
 21
12.6391087493
 31
0.0
  0
LINE
  5
2D4
330
1B
100
AcDbEntity
  8
0
  6
Continuous
 62
     0
100
AcDbLine
 10
4.3672263972
 20
11.0391087493
 30
0.0
 11
4.3672263972
 21
11.0141087493
 31
0.0
  0
LINE
  5
2D5
330
1B
100
AcDbEntity
  8
0
  6
Continuous
 62
     0
100
AcDbLine
 10
4.3687535991
 20
11.4818051696
 30
0.0
 11
4.3687535991
 21
12.1818051696
 31
0.0
  0
LINE
  5
2D6
330
1B
100
AcDbEntity
  8
0
  6
Continuous
 62
     0
100
AcDbLine
 10
4.4774810237
 20
12.9195087493
 30
0.0
 11
4.4774810237
 21
13.0391087493
 31
0.0
  0
LINE
  5
2D7
330
1B
100
AcDbEntity
  8
0
  6
Continuous
 62
     0
100
AcDbLine
 10
4.760399955599999
 20
5.5440916145
 30
0.0
 11
4.760399955599999
 21
5.5340916145
 31
0.0
  0
LINE
  5
2D8
330
1B
100
AcDbEntity
  8
0
  6
Continuous
 62
     0
100
AcDbLine
 10
4.765380929099999
 20
5.5440916145
 30
0.0
 11
4.765380929099999
 21
5.5340916145
 31
0.0
  0
LINE
  5
2D9
330
1B
100
AcDbEntity
  8
0
  6
Continuous
 62
     0
100
AcDbLine
 10
4.768481158
 20
5.5440916145
 30
0.0
 11
4.768481158
 21
5.5340916145
 31
0.0
  0
LINE
  5
2DA
330
1B
100
AcDbEntity
  8
0
  6
Continuous
 62
     0
100
AcDbLine
 10
4.774929842599999
 20
10.5208016627
 30
0.0
 11
4.774929842599999
 21
10.5574158359
 31
0.0
  0
LINE
  5
2DB
330
1B
100
AcDbEntity
  8
0
  6
Continuous
 62
     0
100
AcDbLine
 10
4.774981611499999
 20
5.519509958699999
 30
0.0
 11
4.774981611499999
 21
5.5275911611
 31
0.0
  0
LINE
  5
2DC
330
1B
100
AcDbEntity
  8
0
  6
Continuous
 62
     0
100
AcDbLine
 10
4.774981611499999
 20
5.550592067999999
 30
0.0
 11
4.774981611499999
 21
5.558673270399999
 31
0.0
  0
LINE
  5
2DD
330
1B
100
AcDbEntity
  8
0
  6
Continuous
 62
     0
100
AcDbLine
 10
4.4774810237
 20
3.539108749299999
 30
0.0
 11
9.477481023699999
 21
3.539108749299999
 31
0.0
  0
LINE
  5
2DE
330
1B
100
AcDbEntity
  8
0
  6
Continuous
 62
     0
100
AcDbLine
 10
4.827481023699999
 20
12.0391087493
 30
0.0
 11
4.827481023699999
 21
11.5391087493
 31
0.0
  0
LINE
  5
2DF
330
1B
100
AcDbEntity
  8
0
  6
Continuous
 62
     0
100
AcDbLine
 10
4.839981611499999
 20
5.558673270399999
 30
0.0
 11
4.839981611499999
 21
5.550592067999999
 31
0.0
  0
LINE
  5
2E0
330
1B
100
AcDbEntity
  8
0
  6
Continuous
 62
     0
100
AcDbLine
 10
4.839981611499999
 20
5.519509958699999
 30
0.0
 11
4.839981611499999
 21
5.5275911611
 31
0.0
  0
LINE
  5
2E1
330
1B
100
AcDbEntity
  8
0
  6
Continuous
 62
     0
100
AcDbLine
 10
4.845399955599999
 20
5.6290916145
 30
0.0
 11
4.845399955599999
 21
5.5640916145
 31
0.0
  0
LINE
  5
2E2
330
1B
100
AcDbEntity
  8
0
  6
Continuous
 62
     0
100
AcDbLine
 10
4.845399955599999
 20
5.5140916145
 30
0.0
 11
4.845399955599999
 21
5.4490916145
 31
0.0
  0
LINE
  5
2E3
330
1B
100
AcDbEntity
  8
0
  6
Continuous
 62
     0
100
AcDbLine
 10
4.847173937099999
 20
10.4485575682
 30
0.0
 11
4.847173937099999
 21
10.5011166233
 31
0.0
  0
LINE
  5
2E4
330
1B
100
AcDbEntity
  8
0
  6
Continuous
 62
     0
100
AcDbLine
 10
4.847173937099999
 20
10.5771008753
 30
0.0
 11
4.847173937099999
 21
10.6296599304
 31
0.0
  0
LINE
  5
2E5
330
1B
100
AcDbEntity
  8
0
  6
Continuous
 62
     0
100
AcDbLine
 10
4.850380929099999
 20
5.6290916145
 30
0.0
 11
4.850380929099999
 21
5.5640916145
 31
0.0
  0
LINE
  5
2E6
330
1B
100
AcDbEntity
  8
0
  6
Continuous
 62
     0
100
AcDbLine
 10
4.850380929099999
 20
5.5140916145
 30
0.0
 11
4.850380929099999
 21
5.4490916145
 31
0.0
  0
LINE
  5
2E7
330
1B
100
AcDbEntity
  8
0
  6
Continuous
 62
     0
100
AcDbLine
 10
4.853481158
 20
5.6290916145
 30
0.0
 11
4.853481158
 21
5.5640916145
 31
0.0
  0
LINE
  5
2E8
330
1B
100
AcDbEntity
  8
0
  6
Continuous
 62
     0
100
AcDbLine
 10
4.853481158
 20
5.5140916145
 30
0.0
 11
4.853481158
 21
5.4490916145
 31
0.0
  0
LINE
  5
2E9
330
1B
100
AcDbEntity
  8
0
  6
Continuous
 62
     0
100
AcDbLine
 10
4.859981611499999
 20
5.434509958699999
 30
0.0
 11
4.859981611499999
 21
5.4425911611
 31
0.0
  0
LINE
  5
2EA
330
1B
100
AcDbEntity
  8
0
  6
Continuous
 62
     0
100
AcDbLine
 10
4.859981611499999
 20
5.635592067999999
 30
0.0
 11
4.859981611499999
 21
5.643673270399999
 31
0.0
  0
LINE
  5
2EB
330
1B
100
AcDbEntity
  8
0
  6
Continuous
 62
     0
100
AcDbLine
 10
4.8699816115
 20
5.643673270399999
 30
0.0
 11
4.8699816115
 21
5.635592067999999
 31
0.0
  0
LINE
  5
2EC
330
1B
100
AcDbEntity
  8
0
  6
Continuous
 62
     0
100
AcDbLine
 10
4.8699816115
 20
5.434509958699999
 30
0.0
 11
4.8699816115
 21
5.4425911611
 31
0.0
  0
LINE
  5
2ED
330
1B
100
AcDbEntity
  8
0
  6
Continuous
 62
     0
100
AcDbLine
 10
4.876482065
 20
5.4490916145
 30
0.0
 11
4.876482065
 21
5.5140916145
 31
0.0
  0
LINE
  5
2EE
330
1B
100
AcDbEntity
  8
0
  6
Continuous
 62
     0
100
AcDbLine
 10
4.876482065
 20
5.5640916145
 30
0.0
 11
4.876482065
 21
5.6290916145
 31
0.0
  0
LINE
  5
2EF
330
1B
100
AcDbEntity
  8
0
  6
Continuous
 62
     0
100
AcDbLine
 10
4.879582293899999
 20
5.4490916145
 30
0.0
 11
4.879582293899999
 21
5.5140916145
 31
0.0
  0
LINE
  5
2F0
330
1B
100
AcDbEntity
  8
0
  6
Continuous
 62
     0
100
AcDbLine
 10
4.879582293899999
 20
5.5640916145
 30
0.0
 11
4.879582293899999
 21
5.6290916145
 31
0.0
  0
LINE
  5
2F1
330
1B
100
AcDbEntity
  8
0
  6
Continuous
 62
     0
100
AcDbLine
 10
4.883788110299999
 20
10.6296599304
 30
0.0
 11
4.883788110299999
 21
10.5771008753
 31
0.0
  0
LINE
  5
2F2
330
1B
100
AcDbEntity
  8
0
  6
Continuous
 62
     0
100
AcDbLine
 10
4.883788110299999
 20
10.5011166233
 30
0.0
 11
4.883788110299999
 21
10.4485575682
 31
0.0
  0
LINE
  5
2F3
330
1B
100
AcDbEntity
  8
0
  6
Continuous
 62
     0
100
AcDbLine
 10
4.884563267399999
 20
5.4490916145
 30
0.0
 11
4.884563267399999
 21
5.5140916145
 31
0.0
  0
LINE
  5
2F4
330
1B
100
AcDbEntity
  8
0
  6
Continuous
 62
     0
100
AcDbLine
 10
4.884563267399999
 20
5.5640916145
 30
0.0
 11
4.884563267399999
 21
5.6290916145
 31
0.0
  0
LINE
  5
2F5
330
1B
100
AcDbEntity
  8
0
  6
Continuous
 62
     0
100
AcDbLine
 10
4.889981611499999
 20
5.519509958699999
 30
0.0
 11
4.889981611499999
 21
5.5275911611
 31
0.0
  0
LINE
  5
2F6
330
1B
100
AcDbEntity
  8
0
  6
Continuous
 62
     0
100
AcDbLine
 10
4.889981611499999
 20
5.550592067999999
 30
0.0
 11
4.889981611499999
 21
5.558673270399999
 31
0.0
  0
LINE
  5
2F7
330
1B
100
AcDbEntity
  8
0
  6
Continuous
 62
     0
100
AcDbLine
 10
4.902981023699999
 20
9.998608749299998
 30
0.0
 11
4.902981023699999
 21
5.868608749299999
 31
0.0
  0
LINE
  5
2F8
330
1B
100
AcDbEntity
  8
0
  6
Continuous
 62
     0
100
AcDbLine
 10
4.952481023699999
 20
5.869108749299999
 30
0.0
 11
4.952481023699999
 21
10.0191087493
 31
0.0
  0
LINE
  5
2F9
330
1B
100
AcDbEntity
  8
0
  6
Continuous
 62
     0
100
AcDbLine
 10
4.9549816115
 20
5.558673270399999
 30
0.0
 11
4.9549816115
 21
5.550592067999999
 31
0.0
  0
LINE
  5
2FA
330
1B
100
AcDbEntity
  8
0
  6
Continuous
 62
     0
100
AcDbLine
 10
4.9549816115
 20
5.519509958699999
 30
0.0
 11
4.9549816115
 21
5.5275911611
 31
0.0
  0
LINE
  5
2FB
330
1B
100
AcDbEntity
  8
0
  6
Continuous
 62
     0
100
AcDbLine
 10
4.9560322048
 20
10.5574158359
 30
0.0
 11
4.9560322048
 21
10.5208016627
 31
0.0
  0
LINE
  5
2FC
330
1B
100
AcDbEntity
  8
0
  6
Continuous
 62
     0
100
AcDbLine
 10
4.961482065
 20
5.5340916145
 30
0.0
 11
4.961482065
 21
5.5440916145
 31
0.0
  0
LINE
  5
2FD
330
1B
100
AcDbEntity
  8
0
  6
Continuous
 62
     0
100
AcDbLine
 10
4.964582293899999
 20
5.5340916145
 30
0.0
 11
4.964582293899999
 21
5.5440916145
 31
0.0
  0
LINE
  5
2FE
330
1B
100
AcDbEntity
  8
0
  6
Continuous
 62
     0
100
AcDbLine
 10
4.969563267399999
 20
5.5340916145
 30
0.0
 11
4.969563267399999
 21
5.5440916145
 31
0.0
  0
LINE
  5
2FF
330
1B
100
AcDbEntity
  8
0
  6
Continuous
 62
     0
100
AcDbLine
 10
4.9774810237
 20
6.169108749299999
 30
0.0
 11
4.9774810237
 21
9.7191087493
 31
0.0
  0
LINE
  5
300
330
1B
100
AcDbEntity
  8
0
  6
Continuous
 62
     0
100
AcDbLine
 10
4.9964810237
 20
6.505108749299999
 30
0.0
 11
4.9964810237
 21
6.433108749299999
 31
0.0
  0
LINE
  5
301
330
1B
100
AcDbEntity
  8
0
  6
Continuous
 62
     0
100
AcDbLine
 10
4.9964810237
 20
6.405108749299999
 30
0.0
 11
4.9964810237
 21
6.333108749299999
 31
0.0
  0
LINE
  5
302
330
1B
100
AcDbEntity
  8
0
  6
Continuous
 62
     0
100
AcDbLine
 10
4.9964810237
 20
6.305108749299999
 30
0.0
 11
4.9964810237
 21
6.233108749299999
 31
0.0
  0
LINE
  5
303
330
1B
100
AcDbEntity
  8
0
  6
Continuous
 62
     0
100
AcDbLine
 10
5.0074810237
 20
9.689108749299998
 30
0.0
 11
5.0074810237
 21
9.644108749299999
 31
0.0
  0
LINE
  5
304
330
1B
100
AcDbEntity
  8
0
  6
Continuous
 62
     0
100
AcDbLine
 10
5.0074810237
 20
9.611108749299999
 30
0.0
 11
5.0074810237
 21
9.477108749299999
 31
0.0
  0
LINE
  5
305
330
1B
100
AcDbEntity
  8
0
  6
Continuous
 62
     0
100
AcDbLine
 10
5.0074810237
 20
9.4111087493
 30
0.0
 11
5.0074810237
 21
9.277108749299999
 31
0.0
  0
LINE
  5
306
330
1B
100
AcDbEntity
  8
0
  6
Continuous
 62
     0
100
AcDbLine
 10
5.0074810237
 20
9.247108749299998
 30
0.0
 11
5.0074810237
 21
8.8411087493
 31
0.0
  0
LINE
  5
307
330
1B
100
AcDbEntity
  8
0
  6
Continuous
 62
     0
100
AcDbLine
 10
5.0074810237
 20
8.811108749299998
 30
0.0
 11
5.0074810237
 21
8.6771087493
 31
0.0
  0
LINE
  5
308
330
1B
100
AcDbEntity
  8
0
  6
Continuous
 62
     0
100
AcDbLine
 10
5.0074810237
 20
8.611108749299999
 30
0.0
 11
5.0074810237
 21
8.477108749299999
 31
0.0
  0
LINE
  5
309
330
1B
100
AcDbEntity
  8
0
  6
Continuous
 62
     0
100
AcDbLine
 10
5.0074810237
 20
8.447108749299999
 30
0.0
 11
5.0074810237
 21
8.041108749299999
 31
0.0
  0
LINE
  5
30A
330
1B
100
AcDbEntity
  8
0
  6
Continuous
 62
     0
100
AcDbLine
 10
5.0074810237
 20
8.011108749299999
 30
0.0
 11
5.0074810237
 21
7.877108749299999
 31
0.0
  0
LINE
  5
30B
330
1B
100
AcDbEntity
  8
0
  6
Continuous
 62
     0
100
AcDbLine
 10
5.0074810237
 20
7.811108749299999
 30
0.0
 11
5.0074810237
 21
7.677108749299999
 31
0.0
  0
LINE
  5
30C
330
1B
100
AcDbEntity
  8
0
  6
Continuous
 62
     0
100
AcDbLine
 10
5.0074810237
 20
7.652108749299999
 30
0.0
 11
5.0074810237
 21
7.236108749299999
 31
0.0
  0
LINE
  5
30D
330
1B
100
AcDbEntity
  8
0
  6
Continuous
 62
     0
100
AcDbLine
 10
5.0074810237
 20
7.211108749299999
 30
0.0
 11
5.0074810237
 21
7.077108749299999
 31
0.0
  0
LINE
  5
30E
330
1B
100
AcDbEntity
  8
0
  6
Continuous
 62
     0
100
AcDbLine
 10
5.0074810237
 20
7.047108749299999
 30
0.0
 11
5.0074810237
 21
6.866108749299999
 31
0.0
  0
LINE
  5
30F
330
1B
100
AcDbEntity
  8
0
  6
Continuous
 62
     0
100
AcDbLine
 10
5.0074810237
 20
6.836108749299999
 30
0.0
 11
5.0074810237
 21
6.702108749299999
 31
0.0
  0
LINE
  5
310
330
1B
100
AcDbEntity
  8
0
  6
Continuous
 62
     0
100
AcDbLine
 10
5.0074810237
 20
6.672108749299999
 30
0.0
 11
5.0074810237
 21
6.535108749299999
 31
0.0
  0
LINE
  5
311
330
1B
100
AcDbEntity
  8
0
  6
Continuous
 62
     0
100
AcDbLine
 10
5.016481023699999
 20
6.485108749299999
 30
0.0
 11
5.016481023699999
 21
6.453108749299999
 31
0.0
  0
LINE
  5
312
330
1B
100
AcDbEntity
  8
0
  6
Continuous
 62
     0
100
AcDbLine
 10
5.016481023699999
 20
6.385108749299999
 30
0.0
 11
5.016481023699999
 21
6.353108749299999
 31
0.0
  0
LINE
  5
313
330
1B
100
AcDbEntity
  8
0
  6
Continuous
 62
     0
100
AcDbLine
 10
5.016481023699999
 20
6.285108749299999
 30
0.0
 11
5.016481023699999
 21
6.253108749299999
 31
0.0
  0
LINE
  5
314
330
1B
100
AcDbEntity
  8
0
  6
Continuous
 62
     0
100
AcDbLine
 10
5.032481023699999
 20
9.586108749299999
 30
0.0
 11
5.032481023699999
 21
9.502108749299999
 31
0.0
  0
LINE
  5
315
330
1B
100
AcDbEntity
  8
0
  6
Continuous
 62
     0
100
AcDbLine
 10
5.032481023699999
 20
9.386108749299999
 30
0.0
 11
5.032481023699999
 21
9.3021087493
 31
0.0
  0
LINE
  5
316
330
1B
100
AcDbEntity
  8
0
  6
Continuous
 62
     0
100
AcDbLine
 10
5.032481023699999
 20
8.7861087493
 30
0.0
 11
5.032481023699999
 21
8.702108749299998
 31
0.0
  0
LINE
  5
317
330
1B
100
AcDbEntity
  8
0
  6
Continuous
 62
     0
100
AcDbLine
 10
5.032481023699999
 20
8.586108749299999
 30
0.0
 11
5.032481023699999
 21
8.502108749299999
 31
0.0
  0
LINE
  5
318
330
1B
100
AcDbEntity
  8
0
  6
Continuous
 62
     0
100
AcDbLine
 10
5.032481023699999
 20
7.986108749299999
 30
0.0
 11
5.032481023699999
 21
7.902108749299999
 31
0.0
  0
LINE
  5
319
330
1B
100
AcDbEntity
  8
0
  6
Continuous
 62
     0
100
AcDbLine
 10
5.032481023699999
 20
7.786108749299999
 30
0.0
 11
5.032481023699999
 21
7.702108749299999
 31
0.0
  0
LINE
  5
31A
330
1B
100
AcDbEntity
  8
0
  6
Continuous
 62
     0
100
AcDbLine
 10
5.032481023699999
 20
7.186108749299999
 30
0.0
 11
5.032481023699999
 21
7.102108749299999
 31
0.0
  0
LINE
  5
31B
330
1B
100
AcDbEntity
  8
0
  6
Continuous
 62
     0
100
AcDbLine
 10
5.032481023699999
 20
6.811108749299999
 30
0.0
 11
5.032481023699999
 21
6.727108749299999
 31
0.0
  0
LINE
  5
31C
330
1B
100
AcDbEntity
  8
0
  6
Continuous
 62
     0
100
AcDbLine
 10
5.048481023699999
 20
6.253108749299999
 30
0.0
 11
5.048481023699999
 21
6.285108749299999
 31
0.0
  0
LINE
  5
31D
330
1B
100
AcDbEntity
  8
0
  6
Continuous
 62
     0
100
AcDbLine
 10
5.048481023699999
 20
6.353108749299999
 30
0.0
 11
5.048481023699999
 21
6.385108749299999
 31
0.0
  0
LINE
  5
31E
330
1B
100
AcDbEntity
  8
0
  6
Continuous
 62
     0
100
AcDbLine
 10
5.048481023699999
 20
6.453108749299999
 30
0.0
 11
5.048481023699999
 21
6.485108749299999
 31
0.0
  0
LINE
  5
31F
330
1B
100
AcDbEntity
  8
0
  6
Continuous
 62
     0
100
AcDbLine
 10
5.0684810237
 20
6.233108749299999
 30
0.0
 11
5.0684810237
 21
6.305108749299999
 31
0.0
  0
LINE
  5
320
330
1B
100
AcDbEntity
  8
0
  6
Continuous
 62
     0
100
AcDbLine
 10
5.0684810237
 20
6.333108749299999
 30
0.0
 11
5.0684810237
 21
6.405108749299999
 31
0.0
  0
LINE
  5
321
330
1B
100
AcDbEntity
  8
0
  6
Continuous
 62
     0
100
AcDbLine
 10
5.0684810237
 20
6.433108749299999
 30
0.0
 11
5.0684810237
 21
6.505108749299999
 31
0.0
  0
LINE
  5
322
330
1B
100
AcDbEntity
  8
0
  6
Continuous
 62
     0
100
AcDbLine
 10
5.0712310237
 20
4.5391087493
 30
0.0
 11
5.0712310237
 21
4.309741687999999
 31
0.0
  0
LINE
  5
323
330
1B
100
AcDbEntity
  8
0
  6
Continuous
 62
     0
100
AcDbLine
 10
5.0712310237
 20
11.809741688
 30
0.0
 11
5.0712310237
 21
12.0391087493
 31
0.0
  0
LINE
  5
324
330
1B
100
AcDbEntity
  8
0
  6
Continuous
 62
     0
100
AcDbLine
 10
5.0998110237
 20
6.505108749299999
 30
0.0
 11
5.0998110237
 21
6.433108749299999
 31
0.0
  0
LINE
  5
325
330
1B
100
AcDbEntity
  8
0
  6
Continuous
 62
     0
100
AcDbLine
 10
5.0998110237
 20
6.405108749299999
 30
0.0
 11
5.0998110237
 21
6.333108749299999
 31
0.0
  0
LINE
  5
326
330
1B
100
AcDbEntity
  8
0
  6
Continuous
 62
     0
100
AcDbLine
 10
5.0998110237
 20
6.305108749299999
 30
0.0
 11
5.0998110237
 21
6.233108749299999
 31
0.0
  0
LINE
  5
327
330
1B
100
AcDbEntity
  8
0
  6
Continuous
 62
     0
100
AcDbLine
 10
5.119811023699999
 20
6.485108749299999
 30
0.0
 11
5.119811023699999
 21
6.453108749299999
 31
0.0
  0
LINE
  5
328
330
1B
100
AcDbEntity
  8
0
  6
Continuous
 62
     0
100
AcDbLine
 10
5.119811023699999
 20
6.385108749299999
 30
0.0
 11
5.119811023699999
 21
6.353108749299999
 31
0.0
  0
LINE
  5
329
330
1B
100
AcDbEntity
  8
0
  6
Continuous
 62
     0
100
AcDbLine
 10
5.119811023699999
 20
6.285108749299999
 30
0.0
 11
5.119811023699999
 21
6.253108749299999
 31
0.0
  0
LINE
  5
32A
330
1B
100
AcDbEntity
  8
0
  6
Continuous
 62
     0
100
AcDbLine
 10
5.151811023699999
 20
6.253108749299999
 30
0.0
 11
5.151811023699999
 21
6.285108749299999
 31
0.0
  0
LINE
  5
32B
330
1B
100
AcDbEntity
  8
0
  6
Continuous
 62
     0
100
AcDbLine
 10
5.151811023699999
 20
6.353108749299999
 30
0.0
 11
5.151811023699999
 21
6.385108749299999
 31
0.0
  0
LINE
  5
32C
330
1B
100
AcDbEntity
  8
0
  6
Continuous
 62
     0
100
AcDbLine
 10
5.151811023699999
 20
6.453108749299999
 30
0.0
 11
5.151811023699999
 21
6.485108749299999
 31
0.0
  0
LINE
  5
32D
330
1B
100
AcDbEntity
  8
0
  6
Continuous
 62
     0
100
AcDbLine
 10
5.1718110237
 20
6.233108749299999
 30
0.0
 11
5.1718110237
 21
6.305108749299999
 31
0.0
  0
LINE
  5
32E
330
1B
100
AcDbEntity
  8
0
  6
Continuous
 62
     0
100
AcDbLine
 10
5.1718110237
 20
6.333108749299999
 30
0.0
 11
5.1718110237
 21
6.405108749299999
 31
0.0
  0
LINE
  5
32F
330
1B
100
AcDbEntity
  8
0
  6
Continuous
 62
     0
100
AcDbLine
 10
5.1718110237
 20
6.433108749299999
 30
0.0
 11
5.1718110237
 21
6.505108749299999
 31
0.0
  0
LINE
  5
330
330
1B
100
AcDbEntity
  8
0
  6
Continuous
 62
     0
100
AcDbLine
 10
5.203141023699999
 20
6.505108749299999
 30
0.0
 11
5.203141023699999
 21
6.433108749299999
 31
0.0
  0
LINE
  5
331
330
1B
100
AcDbEntity
  8
0
  6
Continuous
 62
     0
100
AcDbLine
 10
5.203141023699999
 20
6.405108749299999
 30
0.0
 11
5.203141023699999
 21
6.333108749299999
 31
0.0
  0
LINE
  5
332
330
1B
100
AcDbEntity
  8
0
  6
Continuous
 62
     0
100
AcDbLine
 10
5.203141023699999
 20
6.305108749299999
 30
0.0
 11
5.203141023699999
 21
6.233108749299999
 31
0.0
  0
LINE
  5
333
330
1B
100
AcDbEntity
  8
0
  6
Continuous
 62
     0
100
AcDbLine
 10
5.2231410237
 20
6.485108749299999
 30
0.0
 11
5.2231410237
 21
6.453108749299999
 31
0.0
  0
LINE
  5
334
330
1B
100
AcDbEntity
  8
0
  6
Continuous
 62
     0
100
AcDbLine
 10
5.2231410237
 20
6.385108749299999
 30
0.0
 11
5.2231410237
 21
6.353108749299999
 31
0.0
  0
LINE
  5
335
330
1B
100
AcDbEntity
  8
0
  6
Continuous
 62
     0
100
AcDbLine
 10
5.2231410237
 20
6.285108749299999
 30
0.0
 11
5.2231410237
 21
6.253108749299999
 31
0.0
  0
LINE
  5
336
330
1B
100
AcDbEntity
  8
0
  6
Continuous
 62
     0
100
AcDbLine
 10
5.2551410237
 20
6.253108749299999
 30
0.0
 11
5.2551410237
 21
6.285108749299999
 31
0.0
  0
LINE
  5
337
330
1B
100
AcDbEntity
  8
0
  6
Continuous
 62
     0
100
AcDbLine
 10
5.2551410237
 20
6.353108749299999
 30
0.0
 11
5.2551410237
 21
6.385108749299999
 31
0.0
  0
LINE
  5
338
330
1B
100
AcDbEntity
  8
0
  6
Continuous
 62
     0
100
AcDbLine
 10
5.2551410237
 20
6.453108749299999
 30
0.0
 11
5.2551410237
 21
6.485108749299999
 31
0.0
  0
LINE
  5
339
330
1B
100
AcDbEntity
  8
0
  6
Continuous
 62
     0
100
AcDbLine
 10
5.275141023699999
 20
6.233108749299999
 30
0.0
 11
5.275141023699999
 21
6.305108749299999
 31
0.0
  0
LINE
  5
33A
330
1B
100
AcDbEntity
  8
0
  6
Continuous
 62
     0
100
AcDbLine
 10
5.275141023699999
 20
6.333108749299999
 30
0.0
 11
5.275141023699999
 21
6.405108749299999
 31
0.0
  0
LINE
  5
33B
330
1B
100
AcDbEntity
  8
0
  6
Continuous
 62
     0
100
AcDbLine
 10
5.275141023699999
 20
6.433108749299999
 30
0.0
 11
5.275141023699999
 21
6.505108749299999
 31
0.0
  0
LINE
  5
33C
330
1B
100
AcDbEntity
  8
0
  6
Continuous
 62
     0
100
AcDbLine
 10
9.2474810237
 20
3.8391087493
 30
0.0
 11
9.4074810237
 21
3.8391087493
 31
0.0
  0
LINE
  5
33D
330
1B
100
AcDbEntity
  8
0
  6
Continuous
 62
     0
100
AcDbLine
 10
9.197481023699999
 20
3.8991087493
 30
0.0
 11
9.457481023699999
 21
3.8991087493
 31
0.0
  0
LINE
  5
33E
330
1B
100
AcDbEntity
  8
0
  6
Continuous
 62
     0
100
AcDbLine
 10
9.147481023699999
 20
3.959108749299999
 30
0.0
 11
9.5074810237
 21
3.959108749299999
 31
0.0
  0
LINE
  5
33F
330
1B
100
AcDbEntity
  8
0
  6
Continuous
 62
     0
100
AcDbLine
 10
10.0117143475
 20
4.0891087493
 30
0.0
 11
13.0117143475
 21
4.0891087493
 31
0.0
  0
LINE
  5
340
330
1B
100
AcDbEntity
  8
0
  6
Continuous
 62
     0
100
AcDbLine
 10
9.5617143475
 20
4.126608749299999
 30
0.0
 11
9.2867143475
 21
4.126608749299999
 31
0.0
  0
LINE
  5
341
330
1B
100
AcDbEntity
  8
0
  6
Continuous
 62
     0
100
AcDbLine
 10
13.4617143475
 20
4.126608749299999
 30
0.0
 11
13.7367143475
 21
4.126608749299999
 31
0.0
  0
LINE
  5
342
330
1B
100
AcDbEntity
  8
0
  6
Continuous
 62
     0
100
AcDbLine
 10
4.9964810237
 20
6.305108749299999
 30
0.0
 11
5.016481023699999
 21
6.285108749299999
 31
0.0
  0
LINE
  5
343
330
1B
100
AcDbEntity
  8
0
  6
Continuous
 62
     0
100
AcDbLine
 10
5.0684810237
 20
6.233108749299999
 30
0.0
 11
5.048481023699999
 21
6.253108749299999
 31
0.0
  0
LINE
  5
344
330
1B
100
AcDbEntity
  8
0
  6
Continuous
 62
     0
100
AcDbLine
 10
4.9964810237
 20
6.405108749299999
 30
0.0
 11
5.016481023699999
 21
6.385108749299999
 31
0.0
  0
LINE
  5
345
330
1B
100
AcDbEntity
  8
0
  6
Continuous
 62
     0
100
AcDbLine
 10
5.0684810237
 20
6.333108749299999
 30
0.0
 11
5.048481023699999
 21
6.353108749299999
 31
0.0
  0
LINE
  5
346
330
1B
100
AcDbEntity
  8
0
  6
Continuous
 62
     0
100
AcDbLine
 10
5.0998110237
 20
6.305108749299999
 30
0.0
 11
5.119811023699999
 21
6.285108749299999
 31
0.0
  0
LINE
  5
347
330
1B
100
AcDbEntity
  8
0
  6
Continuous
 62
     0
100
AcDbLine
 10
5.1718110237
 20
6.233108749299999
 30
0.0
 11
5.151811023699999
 21
6.253108749299999
 31
0.0
  0
LINE
  5
348
330
1B
100
AcDbEntity
  8
0
  6
Continuous
 62
     0
100
AcDbLine
 10
4.9964810237
 20
6.505108749299999
 30
0.0
 11
5.016481023699999
 21
6.485108749299999
 31
0.0
  0
LINE
  5
349
330
1B
100
AcDbEntity
  8
0
  6
Continuous
 62
     0
100
AcDbLine
 10
5.0684810237
 20
6.433108749299999
 30
0.0
 11
5.048481023699999
 21
6.453108749299999
 31
0.0
  0
LINE
  5
34A
330
1B
100
AcDbEntity
  8
0
  6
Continuous
 62
     0
100
AcDbLine
 10
5.0998110237
 20
6.405108749299999
 30
0.0
 11
5.119811023699999
 21
6.385108749299999
 31
0.0
  0
LINE
  5
34B
330
1B
100
AcDbEntity
  8
0
  6
Continuous
 62
     0
100
AcDbLine
 10
5.1718110237
 20
6.333108749299999
 30
0.0
 11
5.151811023699999
 21
6.353108749299999
 31
0.0
  0
LINE
  5
34C
330
1B
100
AcDbEntity
  8
0
  6
Continuous
 62
     0
100
AcDbLine
 10
5.203141023699999
 20
6.305108749299999
 30
0.0
 11
5.2231410237
 21
6.285108749299999
 31
0.0
  0
LINE
  5
34D
330
1B
100
AcDbEntity
  8
0
  6
Continuous
 62
     0
100
AcDbLine
 10
5.275141023699999
 20
6.233108749299999
 30
0.0
 11
5.2551410237
 21
6.253108749299999
 31
0.0
  0
LINE
  5
34E
330
1B
100
AcDbEntity
  8
0
  6
Continuous
 62
     0
100
AcDbLine
 10
5.0998110237
 20
6.505108749299999
 30
0.0
 11
5.119811023699999
 21
6.485108749299999
 31
0.0
  0
LINE
  5
34F
330
1B
100
AcDbEntity
  8
0
  6
Continuous
 62
     0
100
AcDbLine
 10
5.1718110237
 20
6.433108749299999
 30
0.0
 11
5.151811023699999
 21
6.453108749299999
 31
0.0
  0
LINE
  5
350
330
1B
100
AcDbEntity
  8
0
  6
Continuous
 62
     0
100
AcDbLine
 10
5.203141023699999
 20
6.405108749299999
 30
0.0
 11
5.2231410237
 21
6.385108749299999
 31
0.0
  0
LINE
  5
351
330
1B
100
AcDbEntity
  8
0
  6
Continuous
 62
     0
100
AcDbLine
 10
5.275141023699999
 20
6.333108749299999
 30
0.0
 11
5.2551410237
 21
6.353108749299999
 31
0.0
  0
LINE
  5
352
330
1B
100
AcDbEntity
  8
0
  6
Continuous
 62
     0
100
AcDbLine
 10
5.3064710237
 20
6.305108749299999
 30
0.0
 11
5.326471023699999
 21
6.285108749299999
 31
0.0
  0
LINE
  5
353
330
1B
100
AcDbEntity
  8
0
  6
Continuous
 62
     0
100
AcDbLine
 10
5.3784710237
 20
6.233108749299999
 30
0.0
 11
5.358471023699999
 21
6.253108749299999
 31
0.0
  0
LINE
  5
354
330
1B
100
AcDbEntity
  8
0
  6
Continuous
 62
     0
100
AcDbLine
 10
5.203141023699999
 20
6.505108749299999
 30
0.0
 11
5.2231410237
 21
6.485108749299999
 31
0.0
  0
LINE
  5
355
330
1B
100
AcDbEntity
  8
0
  6
Continuous
 62
     0
100
AcDbLine
 10
5.275141023699999
 20
6.433108749299999
 30
0.0
 11
5.2551410237
 21
6.453108749299999
 31
0.0
  0
LINE
  5
356
330
1B
100
AcDbEntity
  8
0
  6
Continuous
 62
     0
100
AcDbLine
 10
5.3064710237
 20
6.405108749299999
 30
0.0
 11
5.326471023699999
 21
6.385108749299999
 31
0.0
  0
LINE
  5
357
330
1B
100
AcDbEntity
  8
0
  6
Continuous
 62
     0
100
AcDbLine
 10
5.3784710237
 20
6.333108749299999
 30
0.0
 11
5.358471023699999
 21
6.353108749299999
 31
0.0
  0
LINE
  5
358
330
1B
100
AcDbEntity
  8
0
  6
Continuous
 62
     0
100
AcDbLine
 10
5.3064710237
 20
6.505108749299999
 30
0.0
 11
5.326471023699999
 21
6.485108749299999
 31
0.0
  0
LINE
  5
359
330
1B
100
AcDbEntity
  8
0
  6
Continuous
 62
     0
100
AcDbLine
 10
5.3784710237
 20
6.433108749299999
 30
0.0
 11
5.358471023699999
 21
6.453108749299999
 31
0.0
  0
LINE
  5
35A
330
1B
100
AcDbEntity
  8
0
  6
Continuous
 62
     0
100
AcDbLine
 10
5.0074810237
 20
6.836108749299999
 30
0.0
 11
5.032481023699999
 21
6.811108749299999
 31
0.0
  0
LINE
  5
35B
330
1B
100
AcDbEntity
  8
0
  6
Continuous
 62
     0
100
AcDbLine
 10
5.3064710237
 20
6.505108749299999
 30
0.0
 11
5.3064710237
 21
6.433108749299999
 31
0.0
  0
LINE
  5
35C
330
1B
100
AcDbEntity
  8
0
  6
Continuous
 62
     0
100
AcDbLine
 10
5.3064710237
 20
6.405108749299999
 30
0.0
 11
5.3064710237
 21
6.333108749299999
 31
0.0
  0
LINE
  5
35D
330
1B
100
AcDbEntity
  8
0
  6
Continuous
 62
     0
100
AcDbLine
 10
5.3064710237
 20
6.305108749299999
 30
0.0
 11
5.3064710237
 21
6.233108749299999
 31
0.0
  0
LINE
  5
35E
330
1B
100
AcDbEntity
  8
0
  6
Continuous
 62
     0
100
AcDbLine
 10
5.326471023699999
 20
6.485108749299999
 30
0.0
 11
5.326471023699999
 21
6.453108749299999
 31
0.0
  0
LINE
  5
35F
330
1B
100
AcDbEntity
  8
0
  6
Continuous
 62
     0
100
AcDbLine
 10
5.326471023699999
 20
6.385108749299999
 30
0.0
 11
5.326471023699999
 21
6.353108749299999
 31
0.0
  0
LINE
  5
360
330
1B
100
AcDbEntity
  8
0
  6
Continuous
 62
     0
100
AcDbLine
 10
5.326471023699999
 20
6.285108749299999
 30
0.0
 11
5.326471023699999
 21
6.253108749299999
 31
0.0
  0
LINE
  5
361
330
1B
100
AcDbEntity
  8
0
  6
Continuous
 62
     0
100
AcDbLine
 10
5.3424810237
 20
6.727108749299999
 30
0.0
 11
5.3424810237
 21
6.811108749299999
 31
0.0
  0
LINE
  5
362
330
1B
100
AcDbEntity
  8
0
  6
Continuous
 62
     0
100
AcDbLine
 10
5.3424810237
 20
7.102108749299999
 30
0.0
 11
5.3424810237
 21
7.186108749299999
 31
0.0
  0
LINE
  5
363
330
1B
100
AcDbEntity
  8
0
  6
Continuous
 62
     0
100
AcDbLine
 10
5.3424810237
 20
7.702108749299999
 30
0.0
 11
5.3424810237
 21
7.786108749299999
 31
0.0
  0
LINE
  5
364
330
1B
100
AcDbEntity
  8
0
  6
Continuous
 62
     0
100
AcDbLine
 10
5.3424810237
 20
7.902108749299999
 30
0.0
 11
5.3424810237
 21
7.986108749299999
 31
0.0
  0
LINE
  5
365
330
1B
100
AcDbEntity
  8
0
  6
Continuous
 62
     0
100
AcDbLine
 10
5.3424810237
 20
8.502108749299999
 30
0.0
 11
5.3424810237
 21
8.586108749299999
 31
0.0
  0
LINE
  5
366
330
1B
100
AcDbEntity
  8
0
  6
Continuous
 62
     0
100
AcDbLine
 10
5.3424810237
 20
8.702108749299998
 30
0.0
 11
5.3424810237
 21
8.7861087493
 31
0.0
  0
LINE
  5
367
330
1B
100
AcDbEntity
  8
0
  6
Continuous
 62
     0
100
AcDbLine
 10
5.3424810237
 20
9.3021087493
 30
0.0
 11
5.3424810237
 21
9.386108749299999
 31
0.0
  0
LINE
  5
368
330
1B
100
AcDbEntity
  8
0
  6
Continuous
 62
     0
100
AcDbLine
 10
5.3424810237
 20
9.502108749299999
 30
0.0
 11
5.3424810237
 21
9.586108749299999
 31
0.0
  0
LINE
  5
369
330
1B
100
AcDbEntity
  8
0
  6
Continuous
 62
     0
100
AcDbLine
 10
5.358471023699999
 20
6.253108749299999
 30
0.0
 11
5.358471023699999
 21
6.285108749299999
 31
0.0
  0
LINE
  5
36A
330
1B
100
AcDbEntity
  8
0
  6
Continuous
 62
     0
100
AcDbLine
 10
5.358471023699999
 20
6.353108749299999
 30
0.0
 11
5.358471023699999
 21
6.385108749299999
 31
0.0
  0
LINE
  5
36B
330
1B
100
AcDbEntity
  8
0
  6
Continuous
 62
     0
100
AcDbLine
 10
5.358471023699999
 20
6.453108749299999
 30
0.0
 11
5.358471023699999
 21
6.485108749299999
 31
0.0
  0
LINE
  5
36C
330
1B
100
AcDbEntity
  8
0
  6
Continuous
 62
     0
100
AcDbLine
 10
5.367481023699999
 20
6.535108749299999
 30
0.0
 11
5.367481023699999
 21
6.672108749299999
 31
0.0
  0
LINE
  5
36D
330
1B
100
AcDbEntity
  8
0
  6
Continuous
 62
     0
100
AcDbLine
 10
5.367481023699999
 20
6.702108749299999
 30
0.0
 11
5.367481023699999
 21
6.836108749299999
 31
0.0
  0
LINE
  5
36E
330
1B
100
AcDbEntity
  8
0
  6
Continuous
 62
     0
100
AcDbLine
 10
5.367481023699999
 20
6.866108749299999
 30
0.0
 11
5.367481023699999
 21
7.047108749299999
 31
0.0
  0
LINE
  5
36F
330
1B
100
AcDbEntity
  8
0
  6
Continuous
 62
     0
100
AcDbLine
 10
5.367481023699999
 20
7.077108749299999
 30
0.0
 11
5.367481023699999
 21
7.211108749299999
 31
0.0
  0
LINE
  5
370
330
1B
100
AcDbEntity
  8
0
  6
Continuous
 62
     0
100
AcDbLine
 10
5.367481023699999
 20
7.236108749299999
 30
0.0
 11
5.367481023699999
 21
7.652108749299999
 31
0.0
  0
LINE
  5
371
330
1B
100
AcDbEntity
  8
0
  6
Continuous
 62
     0
100
AcDbLine
 10
5.367481023699999
 20
7.677108749299999
 30
0.0
 11
5.367481023699999
 21
7.811108749299999
 31
0.0
  0
LINE
  5
372
330
1B
100
AcDbEntity
  8
0
  6
Continuous
 62
     0
100
AcDbLine
 10
5.367481023699999
 20
7.877108749299999
 30
0.0
 11
5.367481023699999
 21
8.011108749299999
 31
0.0
  0
LINE
  5
373
330
1B
100
AcDbEntity
  8
0
  6
Continuous
 62
     0
100
AcDbLine
 10
5.367481023699999
 20
8.041108749299999
 30
0.0
 11
5.367481023699999
 21
8.447108749299999
 31
0.0
  0
LINE
  5
374
330
1B
100
AcDbEntity
  8
0
  6
Continuous
 62
     0
100
AcDbLine
 10
5.367481023699999
 20
8.477108749299999
 30
0.0
 11
5.367481023699999
 21
8.611108749299999
 31
0.0
  0
LINE
  5
375
330
1B
100
AcDbEntity
  8
0
  6
Continuous
 62
     0
100
AcDbLine
 10
5.367481023699999
 20
8.6771087493
 30
0.0
 11
5.367481023699999
 21
8.811108749299998
 31
0.0
  0
LINE
  5
376
330
1B
100
AcDbEntity
  8
0
  6
Continuous
 62
     0
100
AcDbLine
 10
5.367481023699999
 20
8.8411087493
 30
0.0
 11
5.367481023699999
 21
9.247108749299998
 31
0.0
  0
LINE
  5
377
330
1B
100
AcDbEntity
  8
0
  6
Continuous
 62
     0
100
AcDbLine
 10
5.367481023699999
 20
9.277108749299999
 30
0.0
 11
5.367481023699999
 21
9.4111087493
 31
0.0
  0
LINE
  5
378
330
1B
100
AcDbEntity
  8
0
  6
Continuous
 62
     0
100
AcDbLine
 10
5.367481023699999
 20
9.477108749299999
 30
0.0
 11
5.367481023699999
 21
9.611108749299999
 31
0.0
  0
LINE
  5
379
330
1B
100
AcDbEntity
  8
0
  6
Continuous
 62
     0
100
AcDbLine
 10
5.367481023699999
 20
9.644108749299999
 30
0.0
 11
5.367481023699999
 21
9.689108749299998
 31
0.0
  0
LINE
  5
37A
330
1B
100
AcDbEntity
  8
0
  6
Continuous
 62
     0
100
AcDbLine
 10
5.3784710237
 20
6.233108749299999
 30
0.0
 11
5.3784710237
 21
6.305108749299999
 31
0.0
  0
LINE
  5
37B
330
1B
100
AcDbEntity
  8
0
  6
Continuous
 62
     0
100
AcDbLine
 10
5.3784710237
 20
6.333108749299999
 30
0.0
 11
5.3784710237
 21
6.405108749299999
 31
0.0
  0
LINE
  5
37C
330
1B
100
AcDbEntity
  8
0
  6
Continuous
 62
     0
100
AcDbLine
 10
5.3784710237
 20
6.433108749299999
 30
0.0
 11
5.3784710237
 21
6.505108749299999
 31
0.0
  0
LINE
  5
37D
330
1B
100
AcDbEntity
  8
0
  6
Continuous
 62
     0
100
AcDbLine
 10
5.3837310237
 20
12.0391087493
 30
0.0
 11
5.3837310237
 21
11.809741688
 31
0.0
  0
LINE
  5
37E
330
1B
100
AcDbEntity
  8
0
  6
Continuous
 62
     0
100
AcDbLine
 10
5.3837310237
 20
4.309741687999999
 30
0.0
 11
5.3837310237
 21
4.5391087493
 31
0.0
  0
LINE
  5
37F
330
1B
100
AcDbEntity
  8
0
  6
Continuous
 62
     0
100
AcDbLine
 10
5.3974810237
 20
9.7191087493
 30
0.0
 11
5.3974810237
 21
6.169108749299999
 31
0.0
  0
LINE
  5
380
330
1B
100
AcDbEntity
  8
0
  6
Continuous
 62
     0
100
AcDbLine
 10
5.422481023699999
 20
10.0191087493
 30
0.0
 11
5.422481023699999
 21
5.869108749299999
 31
0.0
  0
LINE
  5
381
330
1B
100
AcDbEntity
  8
0
  6
Continuous
 62
     0
100
AcDbLine
 10
5.4529810237
 20
5.868608749299999
 30
0.0
 11
5.4529810237
 21
9.998608749299998
 31
0.0
  0
LINE
  5
382
330
1B
100
AcDbEntity
  8
0
  6
Continuous
 62
     0
100
AcDbLine
 10
5.627481023699999
 20
11.5391087493
 30
0.0
 11
5.627481023699999
 21
12.0391087493
 31
0.0
  0
LINE
  5
383
330
1B
100
AcDbEntity
  8
0
  6
Continuous
 62
     0
100
AcDbLine
 10
5.0074810237
 20
9.477108749299999
 30
0.0
 11
5.032481023699999
 21
9.502108749299999
 31
0.0
  0
LINE
  5
384
330
1B
100
AcDbEntity
  8
0
  6
Continuous
 62
     0
100
AcDbLine
 10
5.0074810237
 20
9.277108749299999
 30
0.0
 11
5.032481023699999
 21
9.3021087493
 31
0.0
  0
LINE
  5
385
330
1B
100
AcDbEntity
  8
0
  6
Continuous
 62
     0
100
AcDbLine
 10
5.367481023699999
 20
9.611108749299999
 30
0.0
 11
5.3424810237
 21
9.586108749299999
 31
0.0
  0
LINE
  5
386
330
1B
100
AcDbEntity
  8
0
  6
Continuous
 62
     0
100
AcDbLine
 10
9.1811973648
 20
4.2141087493
 30
0.0
 11
9.636714347499999
 21
4.2141087493
 31
0.0
  0
LINE
  5
387
330
1B
100
AcDbEntity
  8
0
  6
Continuous
 62
     0
100
AcDbLine
 10
13.3867143475
 20
4.2141087493
 30
0.0
 11
13.8422313302
 21
4.2141087493
 31
0.0
  0
LINE
  5
388
330
1B
100
AcDbEntity
  8
0
  6
Continuous
 62
     0
100
AcDbLine
 10
9.5617143475
 20
4.314108749299999
 30
0.0
 11
9.2867143475
 21
4.314108749299999
 31
0.0
  0
LINE
  5
389
330
1B
100
AcDbEntity
  8
0
  6
Continuous
 62
     0
100
AcDbLine
 10
13.4617143475
 20
4.314108749299999
 30
0.0
 11
13.7367143475
 21
4.314108749299999
 31
0.0
  0
LINE
  5
38A
330
1B
100
AcDbEntity
  8
0
  6
Continuous
 62
     0
100
AcDbLine
 10
9.5617143475
 20
4.364108749299999
 30
0.0
 11
9.2867143475
 21
4.364108749299999
 31
0.0
  0
LINE
  5
38B
330
1B
100
AcDbEntity
  8
0
  6
Continuous
 62
     0
100
AcDbLine
 10
13.4617143475
 20
4.364108749299999
 30
0.0
 11
13.7367143475
 21
4.364108749299999
 31
0.0
  0
LINE
  5
38C
330
1B
100
AcDbEntity
  8
0
  6
Continuous
 62
     0
100
AcDbLine
 10
9.636714347499999
 20
4.4641087493
 30
0.0
 11
9.1811973648
 21
4.4641087493
 31
0.0
  0
LINE
  5
38D
330
1B
100
AcDbEntity
  8
0
  6
Continuous
 62
     0
100
AcDbLine
 10
13.3867143475
 20
4.4641087493
 30
0.0
 11
13.8422313302
 21
4.4641087493
 31
0.0
  0
LINE
  5
38E
330
1B
100
AcDbEntity
  8
0
  6
Continuous
 62
     0
100
AcDbLine
 10
9.5617143475
 20
4.551608749299999
 30
0.0
 11
9.2867143475
 21
4.551608749299999
 31
0.0
  0
LINE
  5
38F
330
1B
100
AcDbEntity
  8
0
  6
Continuous
 62
     0
100
AcDbLine
 10
13.4617143475
 20
4.551608749299999
 30
0.0
 11
13.7367143475
 21
4.551608749299999
 31
0.0
  0
LINE
  5
390
330
1B
100
AcDbEntity
  8
0
  6
Continuous
 62
     0
100
AcDbLine
 10
13.0117143475
 20
4.5891087493
 30
0.0
 11
10.0117143475
 21
4.5891087493
 31
0.0
  0
LINE
  5
391
330
1B
100
AcDbEntity
  8
0
  6
Continuous
 62
     0
100
AcDbLine
 10
9.636714347499999
 20
4.2141087493
 30
0.0
 11
10.0117143475
 21
4.0891087493
 31
0.0
  0
LINE
  5
392
330
1B
100
AcDbEntity
  8
0
  6
Continuous
 62
     0
100
AcDbLine
 10
5.367481023699999
 20
6.702108749299999
 30
0.0
 11
5.3424810237
 21
6.727108749299999
 31
0.0
  0
LINE
  5
393
330
1B
100
AcDbEntity
  8
0
  6
Continuous
 62
     0
100
AcDbLine
 10
5.0074810237
 20
7.211108749299999
 30
0.0
 11
5.032481023699999
 21
7.186108749299999
 31
0.0
  0
LINE
  5
394
330
1B
100
AcDbEntity
  8
0
  6
Continuous
 62
     0
100
AcDbLine
 10
5.367481023699999
 20
7.077108749299999
 30
0.0
 11
5.3424810237
 21
7.102108749299999
 31
0.0
  0
LINE
  5
395
330
1B
100
AcDbEntity
  8
0
  6
Continuous
 62
     0
100
AcDbLine
 10
6.0674810237
 20
12.9195087493
 30
0.0
 11
6.0674810237
 21
13.0391087493
 31
0.0
  0
LINE
  5
396
330
1B
100
AcDbEntity
  8
0
  6
Continuous
 62
     0
100
AcDbLine
 10
5.367481023699999
 20
9.4111087493
 30
0.0
 11
5.3424810237
 21
9.386108749299999
 31
0.0
  0
LINE
  5
397
330
1B
100
AcDbEntity
  8
0
  6
Continuous
 62
     0
100
AcDbLine
 10
5.0074810237
 20
8.6771087493
 30
0.0
 11
5.032481023699999
 21
8.702108749299998
 31
0.0
  0
LINE
  5
398
330
1B
100
AcDbEntity
  8
0
  6
Continuous
 62
     0
100
AcDbLine
 10
5.0074810237
 20
8.477108749299999
 30
0.0
 11
5.032481023699999
 21
8.502108749299999
 31
0.0
  0
LINE
  5
399
330
1B
100
AcDbEntity
  8
0
  6
Continuous
 62
     0
100
AcDbLine
 10
5.367481023699999
 20
8.811108749299998
 30
0.0
 11
5.3424810237
 21
8.7861087493
 31
0.0
  0
LINE
  5
39A
330
1B
100
AcDbEntity
  8
0
  6
Continuous
 62
     0
100
AcDbLine
 10
9.414985541
 20
5.1045327561
 30
0.0
 11
4.3649855412
 21
5.1044870935
 31
0.0
  0
LINE
  5
39B
330
1B
100
AcDbEntity
  8
0
  6
Continuous
 62
     0
100
AcDbLine
 10
5.0074810237
 20
7.811108749299999
 30
0.0
 11
5.032481023699999
 21
7.786108749299999
 31
0.0
  0
LINE
  5
39C
330
1B
100
AcDbEntity
  8
0
  6
Continuous
 62
     0
100
AcDbLine
 10
5.0074810237
 20
8.011108749299999
 30
0.0
 11
5.032481023699999
 21
7.986108749299999
 31
0.0
  0
LINE
  5
39D
330
1B
100
AcDbEntity
  8
0
  6
Continuous
 62
     0
100
AcDbLine
 10
5.367481023699999
 20
7.677108749299999
 30
0.0
 11
5.3424810237
 21
7.702108749299999
 31
0.0
  0
LINE
  5
39E
330
1B
100
AcDbEntity
  8
0
  6
Continuous
 62
     0
100
AcDbLine
 10
6.2174810237
 20
12.6391087493
 30
0.0
 11
6.2174810237
 21
13.0391087493
 31
0.0
  0
LINE
  5
39F
330
1B
100
AcDbEntity
  8
0
  6
Continuous
 62
     0
100
AcDbLine
 10
5.367481023699999
 20
8.611108749299999
 30
0.0
 11
5.3424810237
 21
8.586108749299999
 31
0.0
  0
LINE
  5
3A0
330
1B
100
AcDbEntity
  8
0
  6
Continuous
 62
     0
100
AcDbLine
 10
9.605481023699999
 20
12.6391087493
 30
0.0
 11
9.604782874299999
 21
12.6384105999
 31
0.0
  0
LINE
  5
3A1
330
1B
100
AcDbEntity
  8
0
  6
Continuous
 62
     0
100
AcDbLine
 10
5.0074810237
 20
7.877108749299999
 30
0.0
 11
5.032481023699999
 21
7.902108749299999
 31
0.0
  0
LINE
  5
3A2
330
1B
100
AcDbEntity
  8
0
  6
Continuous
 62
     0
100
AcDbLine
 10
4.364984324099999
 20
5.2390870935
 30
0.0
 11
9.4149843239
 21
5.2391327561
 31
0.0
  0
LINE
  5
3A3
330
1B
100
AcDbEntity
  8
0
  6
Continuous
 62
     0
100
AcDbLine
 10
9.414984098099999
 20
5.2641087493
 30
0.0
 11
9.615481023699999
 21
5.2641087493
 31
0.0
  0
LINE
  5
3A4
330
1B
100
AcDbEntity
  8
0
  6
Continuous
 62
     0
100
AcDbLine
 10
4.859981611499999
 20
5.434509958699999
 30
0.0
 11
4.8699816115
 21
5.434509958699999
 31
0.0
  0
LINE
  5
3A5
330
1B
100
AcDbEntity
  8
0
  6
Continuous
 62
     0
100
AcDbLine
 10
8.909981611299999
 20
5.4345465791
 30
0.0
 11
8.9199816113
 21
5.4345465791
 31
0.0
  0
LINE
  5
3A6
330
1B
100
AcDbEntity
  8
0
  6
Continuous
 62
     0
100
AcDbLine
 10
4.859981611499999
 20
5.4394909322
 30
0.0
 11
4.8699816115
 21
5.4394909322
 31
0.0
  0
LINE
  5
3A7
330
1B
100
AcDbEntity
  8
0
  6
Continuous
 62
     0
100
AcDbLine
 10
8.909981611299999
 20
5.439527552599999
 30
0.0
 11
8.9199816113
 21
5.439527552599999
 31
0.0
  0
LINE
  5
3A8
330
1B
100
AcDbEntity
  8
0
  6
Continuous
 62
     0
100
AcDbLine
 10
4.859981611499999
 20
5.4425911611
 30
0.0
 11
4.8699816115
 21
5.4425911611
 31
0.0
  0
LINE
  5
3A9
330
1B
100
AcDbEntity
  8
0
  6
Continuous
 62
     0
100
AcDbLine
 10
8.909981611299999
 20
5.442627781499999
 30
0.0
 11
8.9199816113
 21
5.442627781499999
 31
0.0
  0
LINE
  5
3AA
330
1B
100
AcDbEntity
  8
0
  6
Continuous
 62
     0
100
AcDbLine
 10
4.884563267399999
 20
5.4490916145
 30
0.0
 11
4.876482065
 21
5.4490916145
 31
0.0
  0
LINE
  5
3AB
330
1B
100
AcDbEntity
  8
0
  6
Continuous
 62
     0
100
AcDbLine
 10
4.845399955599999
 20
5.4490916145
 30
0.0
 11
4.853481158
 21
5.4490916145
 31
0.0
  0
LINE
  5
3AC
330
1B
100
AcDbEntity
  8
0
  6
Continuous
 62
     0
100
AcDbLine
 10
8.934563267199999
 20
5.449128234999999
 30
0.0
 11
8.9264820648
 21
5.449128234999999
 31
0.0
  0
LINE
  5
3AD
330
1B
100
AcDbEntity
  8
0
  6
Continuous
 62
     0
100
AcDbLine
 10
8.8953999555
 20
5.449128234999999
 30
0.0
 11
8.903481157899999
 21
5.449128234999999
 31
0.0
  0
LINE
  5
3AE
330
1B
100
AcDbEntity
  8
0
  6
Continuous
 62
     0
100
AcDbLine
 10
4.845399955599999
 20
5.5140916145
 30
0.0
 11
4.853481158
 21
5.5140916145
 31
0.0
  0
LINE
  5
3AF
330
1B
100
AcDbEntity
  8
0
  6
Continuous
 62
     0
100
AcDbLine
 10
4.876482065
 20
5.5140916145
 30
0.0
 11
4.884563267399999
 21
5.5140916145
 31
0.0
  0
LINE
  5
3B0
330
1B
100
AcDbEntity
  8
0
  6
Continuous
 62
     0
100
AcDbLine
 10
8.8953999555
 20
5.514128235
 30
0.0
 11
8.903481157899999
 21
5.514128235
 31
0.0
  0
LINE
  5
3B1
330
1B
100
AcDbEntity
  8
0
  6
Continuous
 62
     0
100
AcDbLine
 10
8.9264820648
 20
5.514128235
 30
0.0
 11
8.934563267199999
 21
5.514128235
 31
0.0
  0
LINE
  5
3B2
330
1B
100
AcDbEntity
  8
0
  6
Continuous
 62
     0
100
AcDbLine
 10
4.774981611499999
 20
5.519509958699999
 30
0.0
 11
4.839981611499999
 21
5.519509958699999
 31
0.0
  0
LINE
  5
3B3
330
1B
100
AcDbEntity
  8
0
  6
Continuous
 62
     0
100
AcDbLine
 10
4.889981611499999
 20
5.519509958699999
 30
0.0
 11
4.9549816115
 21
5.519509958699999
 31
0.0
  0
LINE
  5
3B4
330
1B
100
AcDbEntity
  8
0
  6
Continuous
 62
     0
100
AcDbLine
 10
8.8249816113
 20
5.5195465791
 30
0.0
 11
8.889981611299999
 21
5.5195465791
 31
0.0
  0
LINE
  5
3B5
330
1B
100
AcDbEntity
  8
0
  6
Continuous
 62
     0
100
AcDbLine
 10
8.9399816113
 20
5.5195465791
 30
0.0
 11
9.004981611299999
 21
5.5195465791
 31
0.0
  0
LINE
  5
3B6
330
1B
100
AcDbEntity
  8
0
  6
Continuous
 62
     0
100
AcDbLine
 10
4.774981611499999
 20
5.524490932199999
 30
0.0
 11
4.839981611499999
 21
5.524490932199999
 31
0.0
  0
LINE
  5
3B7
330
1B
100
AcDbEntity
  8
0
  6
Continuous
 62
     0
100
AcDbLine
 10
4.889981611499999
 20
5.524490932199999
 30
0.0
 11
4.9549816115
 21
5.524490932199999
 31
0.0
  0
LINE
  5
3B8
330
1B
100
AcDbEntity
  8
0
  6
Continuous
 62
     0
100
AcDbLine
 10
8.8249816113
 20
5.524527552599999
 30
0.0
 11
8.889981611299999
 21
5.524527552599999
 31
0.0
  0
LINE
  5
3B9
330
1B
100
AcDbEntity
  8
0
  6
Continuous
 62
     0
100
AcDbLine
 10
8.9399816113
 20
5.524527552599999
 30
0.0
 11
9.004981611299999
 21
5.524527552599999
 31
0.0
  0
LINE
  5
3BA
330
1B
100
AcDbEntity
  8
0
  6
Continuous
 62
     0
100
AcDbLine
 10
4.774981611499999
 20
5.5275911611
 30
0.0
 11
4.839981611499999
 21
5.5275911611
 31
0.0
  0
LINE
  5
3BB
330
1B
100
AcDbEntity
  8
0
  6
Continuous
 62
     0
100
AcDbLine
 10
4.889981611499999
 20
5.5275911611
 30
0.0
 11
4.9549816115
 21
5.5275911611
 31
0.0
  0
LINE
  5
3BC
330
1B
100
AcDbEntity
  8
0
  6
Continuous
 62
     0
100
AcDbLine
 10
8.8249816113
 20
5.527627781499999
 30
0.0
 11
8.889981611299999
 21
5.527627781499999
 31
0.0
  0
LINE
  5
3BD
330
1B
100
AcDbEntity
  8
0
  6
Continuous
 62
     0
100
AcDbLine
 10
8.9399816113
 20
5.527627781499999
 30
0.0
 11
9.004981611299999
 21
5.527627781499999
 31
0.0
  0
LINE
  5
3BE
330
1B
100
AcDbEntity
  8
0
  6
Continuous
 62
     0
100
AcDbLine
 10
4.969563267399999
 20
5.5340916145
 30
0.0
 11
4.961482065
 21
5.5340916145
 31
0.0
  0
LINE
  5
3BF
330
1B
100
AcDbEntity
  8
0
  6
Continuous
 62
     0
100
AcDbLine
 10
4.760399955599999
 20
5.5340916145
 30
0.0
 11
4.768481158
 21
5.5340916145
 31
0.0
  0
LINE
  5
3C0
330
1B
100
AcDbEntity
  8
0
  6
Continuous
 62
     0
100
AcDbLine
 10
9.0195632672
 20
5.534128234999999
 30
0.0
 11
9.0114820648
 21
5.534128234999999
 31
0.0
  0
LINE
  5
3C1
330
1B
100
AcDbEntity
  8
0
  6
Continuous
 62
     0
100
AcDbLine
 10
8.810399955499999
 20
5.534128234999999
 30
0.0
 11
8.818481157899999
 21
5.534128234999999
 31
0.0
  0
LINE
  5
3C2
330
1B
100
AcDbEntity
  8
0
  6
Continuous
 62
     0
100
AcDbLine
 10
4.760399955599999
 20
5.5440916145
 30
0.0
 11
4.768481158
 21
5.5440916145
 31
0.0
  0
LINE
  5
3C3
330
1B
100
AcDbEntity
  8
0
  6
Continuous
 62
     0
100
AcDbLine
 10
4.961482065
 20
5.5440916145
 30
0.0
 11
4.969563267399999
 21
5.5440916145
 31
0.0
  0
LINE
  5
3C4
330
1B
100
AcDbEntity
  8
0
  6
Continuous
 62
     0
100
AcDbLine
 10
8.810399955499999
 20
5.544128234999999
 30
0.0
 11
8.818481157899999
 21
5.544128234999999
 31
0.0
  0
LINE
  5
3C5
330
1B
100
AcDbEntity
  8
0
  6
Continuous
 62
     0
100
AcDbLine
 10
9.0114820648
 20
5.544128234999999
 30
0.0
 11
9.0195632672
 21
5.544128234999999
 31
0.0
  0
LINE
  5
3C6
330
1B
100
AcDbEntity
  8
0
  6
Continuous
 62
     0
100
AcDbLine
 10
4.9549816115
 20
5.550592067999999
 30
0.0
 11
4.889981611499999
 21
5.550592067999999
 31
0.0
  0
LINE
  5
3C7
330
1B
100
AcDbEntity
  8
0
  6
Continuous
 62
     0
100
AcDbLine
 10
4.839981611499999
 20
5.550592067999999
 30
0.0
 11
4.774981611499999
 21
5.550592067999999
 31
0.0
  0
LINE
  5
3C8
330
1B
100
AcDbEntity
  8
0
  6
Continuous
 62
     0
100
AcDbLine
 10
9.004981611299999
 20
5.550628688499999
 30
0.0
 11
8.9399816113
 21
5.550628688499999
 31
0.0
  0
LINE
  5
3C9
330
1B
100
AcDbEntity
  8
0
  6
Continuous
 62
     0
100
AcDbLine
 10
8.889981611299999
 20
5.550628688499999
 30
0.0
 11
8.8249816113
 21
5.550628688499999
 31
0.0
  0
LINE
  5
3CA
330
1B
100
AcDbEntity
  8
0
  6
Continuous
 62
     0
100
AcDbLine
 10
4.9549816115
 20
5.5536922969
 30
0.0
 11
4.889981611499999
 21
5.5536922969
 31
0.0
  0
LINE
  5
3CB
330
1B
100
AcDbEntity
  8
0
  6
Continuous
 62
     0
100
AcDbLine
 10
4.839981611499999
 20
5.5536922969
 30
0.0
 11
4.774981611499999
 21
5.5536922969
 31
0.0
  0
LINE
  5
3CC
330
1B
100
AcDbEntity
  8
0
  6
Continuous
 62
     0
100
AcDbLine
 10
9.004981611299999
 20
5.553728917399999
 30
0.0
 11
8.9399816113
 21
5.553728917399999
 31
0.0
  0
LINE
  5
3CD
330
1B
100
AcDbEntity
  8
0
  6
Continuous
 62
     0
100
AcDbLine
 10
8.889981611299999
 20
5.553728917399999
 30
0.0
 11
8.8249816113
 21
5.553728917399999
 31
0.0
  0
LINE
  5
3CE
330
1B
100
AcDbEntity
  8
0
  6
Continuous
 62
     0
100
AcDbLine
 10
4.9549816115
 20
5.558673270399999
 30
0.0
 11
4.889981611499999
 21
5.558673270399999
 31
0.0
  0
LINE
  5
3CF
330
1B
100
AcDbEntity
  8
0
  6
Continuous
 62
     0
100
AcDbLine
 10
4.839981611499999
 20
5.558673270399999
 30
0.0
 11
4.774981611499999
 21
5.558673270399999
 31
0.0
  0
LINE
  5
3D0
330
1B
100
AcDbEntity
  8
0
  6
Continuous
 62
     0
100
AcDbLine
 10
9.004981611299999
 20
5.5587098909
 30
0.0
 11
8.9399816113
 21
5.5587098909
 31
0.0
  0
LINE
  5
3D1
330
1B
100
AcDbEntity
  8
0
  6
Continuous
 62
     0
100
AcDbLine
 10
8.889981611299999
 20
5.5587098909
 30
0.0
 11
8.8249816113
 21
5.5587098909
 31
0.0
  0
LINE
  5
3D2
330
1B
100
AcDbEntity
  8
0
  6
Continuous
 62
     0
100
AcDbLine
 10
4.884563267399999
 20
5.5640916145
 30
0.0
 11
4.876482065
 21
5.5640916145
 31
0.0
  0
LINE
  5
3D3
330
1B
100
AcDbEntity
  8
0
  6
Continuous
 62
     0
100
AcDbLine
 10
4.845399955599999
 20
5.5640916145
 30
0.0
 11
4.853481158
 21
5.5640916145
 31
0.0
  0
LINE
  5
3D4
330
1B
100
AcDbEntity
  8
0
  6
Continuous
 62
     0
100
AcDbLine
 10
8.934563267199999
 20
5.564128235
 30
0.0
 11
8.9264820648
 21
5.564128235
 31
0.0
  0
LINE
  5
3D5
330
1B
100
AcDbEntity
  8
0
  6
Continuous
 62
     0
100
AcDbLine
 10
8.8953999555
 20
5.564128235
 30
0.0
 11
8.903481157899999
 21
5.564128235
 31
0.0
  0
LINE
  5
3D6
330
1B
100
AcDbEntity
  8
0
  6
Continuous
 62
     0
100
AcDbLine
 10
5.367481023699999
 20
7.877108749299999
 30
0.0
 11
5.3424810237
 21
7.902108749299999
 31
0.0
  0
LINE
  5
3D7
330
1B
100
AcDbEntity
  8
0
  6
Continuous
 62
     0
100
AcDbLine
 10
5.0074810237
 20
8.611108749299999
 30
0.0
 11
5.032481023699999
 21
8.586108749299999
 31
0.0
  0
LINE
  5
3D8
330
1B
100
AcDbEntity
  8
0
  6
Continuous
 62
     0
100
AcDbLine
 10
5.0074810237
 20
8.811108749299998
 30
0.0
 11
5.032481023699999
 21
8.7861087493
 31
0.0
  0
LINE
  5
3D9
330
1B
100
AcDbEntity
  8
0
  6
Continuous
 62
     0
100
AcDbLine
 10
6.774929842599999
 20
8.6083016627
 30
0.0
 11
6.774929842599999
 21
8.6449158359
 31
0.0
  0
LINE
  5
3DA
330
1B
100
AcDbEntity
  8
0
  6
Continuous
 62
     0
100
AcDbLine
 10
6.847173937099999
 20
8.5360575682
 30
0.0
 11
6.847173937099999
 21
8.5886166233
 31
0.0
  0
LINE
  5
3DB
330
1B
100
AcDbEntity
  8
0
  6
Continuous
 62
     0
100
AcDbLine
 10
6.847173937099999
 20
8.664600875299999
 30
0.0
 11
6.847173937099999
 21
8.717159930399999
 31
0.0
  0
LINE
  5
3DC
330
1B
100
AcDbEntity
  8
0
  6
Continuous
 62
     0
100
AcDbLine
 10
6.883788110299999
 20
8.717159930399999
 30
0.0
 11
6.883788110299999
 21
8.664600875299999
 31
0.0
  0
LINE
  5
3DD
330
1B
100
AcDbEntity
  8
0
  6
Continuous
 62
     0
100
AcDbLine
 10
6.883788110299999
 20
8.5886166233
 30
0.0
 11
6.883788110299999
 21
8.5360575682
 31
0.0
  0
LINE
  5
3DE
330
1B
100
AcDbEntity
  8
0
  6
Continuous
 62
     0
100
AcDbLine
 10
6.9560322048
 20
8.6449158359
 30
0.0
 11
6.9560322048
 21
8.6083016627
 31
0.0
  0
LINE
  5
3DF
330
1B
100
AcDbEntity
  8
0
  6
Continuous
 62
     0
100
AcDbLine
 10
5.0074810237
 20
7.677108749299999
 30
0.0
 11
5.032481023699999
 21
7.702108749299999
 31
0.0
  0
LINE
  5
3E0
330
1B
100
AcDbEntity
  8
0
  6
Continuous
 62
     0
100
AcDbLine
 10
5.367481023699999
 20
8.011108749299999
 30
0.0
 11
5.3424810237
 21
7.986108749299999
 31
0.0
  0
LINE
  5
3E1
330
1B
100
AcDbEntity
  8
0
  6
Continuous
 62
     0
100
AcDbLine
 10
5.367481023699999
 20
7.811108749299999
 30
0.0
 11
5.3424810237
 21
7.786108749299999
 31
0.0
  0
LINE
  5
3E2
330
1B
100
AcDbEntity
  8
0
  6
Continuous
 62
     0
100
AcDbLine
 10
4.845399955599999
 20
5.6290916145
 30
0.0
 11
4.853481158
 21
5.6290916145
 31
0.0
  0
LINE
  5
3E3
330
1B
100
AcDbEntity
  8
0
  6
Continuous
 62
     0
100
AcDbLine
 10
4.876482065
 20
5.6290916145
 30
0.0
 11
4.884563267399999
 21
5.6290916145
 31
0.0
  0
LINE
  5
3E4
330
1B
100
AcDbEntity
  8
0
  6
Continuous
 62
     0
100
AcDbLine
 10
8.8953999555
 20
5.629128234999999
 30
0.0
 11
8.903481157899999
 21
5.629128234999999
 31
0.0
  0
LINE
  5
3E5
330
1B
100
AcDbEntity
  8
0
  6
Continuous
 62
     0
100
AcDbLine
 10
8.9264820648
 20
5.629128234999999
 30
0.0
 11
8.934563267199999
 21
5.629128234999999
 31
0.0
  0
LINE
  5
3E6
330
1B
100
AcDbEntity
  8
0
  6
Continuous
 62
     0
100
AcDbLine
 10
4.8699816115
 20
5.635592067999999
 30
0.0
 11
4.859981611499999
 21
5.635592067999999
 31
0.0
  0
LINE
  5
3E7
330
1B
100
AcDbEntity
  8
0
  6
Continuous
 62
     0
100
AcDbLine
 10
8.9199816113
 20
5.6356286885
 30
0.0
 11
8.909981611299999
 21
5.6356286885
 31
0.0
  0
LINE
  5
3E8
330
1B
100
AcDbEntity
  8
0
  6
Continuous
 62
     0
100
AcDbLine
 10
4.8699816115
 20
5.6386922969
 30
0.0
 11
4.859981611499999
 21
5.6386922969
 31
0.0
  0
LINE
  5
3E9
330
1B
100
AcDbEntity
  8
0
  6
Continuous
 62
     0
100
AcDbLine
 10
8.9199816113
 20
5.638728917399999
 30
0.0
 11
8.909981611299999
 21
5.638728917399999
 31
0.0
  0
LINE
  5
3EA
330
1B
100
AcDbEntity
  8
0
  6
Continuous
 62
     0
100
AcDbLine
 10
4.8699816115
 20
5.643673270399999
 30
0.0
 11
4.859981611499999
 21
5.643673270399999
 31
0.0
  0
LINE
  5
3EB
330
1B
100
AcDbEntity
  8
0
  6
Continuous
 62
     0
100
AcDbLine
 10
8.9199816113
 20
5.6437098909
 30
0.0
 11
8.909981611299999
 21
5.6437098909
 31
0.0
  0
LINE
  5
3EC
330
1B
100
AcDbEntity
  8
0
  6
Continuous
 62
     0
100
AcDbLine
 10
9.2949788987
 20
5.839131671
 30
0.0
 11
4.484978898899999
 21
5.839088178499999
 31
0.0
  0
LINE
  5
3ED
330
1B
100
AcDbEntity
  8
0
  6
Continuous
 62
     0
100
AcDbLine
 10
9.072481023699999
 20
5.869108749299999
 30
0.0
 11
8.602481023699999
 21
5.869108749299999
 31
0.0
  0
LINE
  5
3EE
330
1B
100
AcDbEntity
  8
0
  6
Continuous
 62
     0
100
AcDbLine
 10
5.422481023699999
 20
5.869108749299999
 30
0.0
 11
4.952481023699999
 21
5.869108749299999
 31
0.0
  0
LINE
  5
3EF
330
1B
100
AcDbEntity
  8
0
  6
Continuous
 62
     0
100
AcDbLine
 10
13.3867143475
 20
4.4641087493
 30
0.0
 11
13.0117143475
 21
4.5891087493
 31
0.0
  0
LINE
  5
3F0
330
1B
100
AcDbEntity
  8
0
  6
Continuous
 62
     0
100
AcDbLine
 10
5.367481023699999
 20
8.477108749299999
 30
0.0
 11
5.3424810237
 21
8.502108749299999
 31
0.0
  0
LINE
  5
3F1
330
1B
100
AcDbEntity
  8
0
  6
Continuous
 62
     0
100
AcDbLine
 10
5.367481023699999
 20
8.6771087493
 30
0.0
 11
5.3424810237
 21
8.702108749299998
 31
0.0
  0
LINE
  5
3F2
330
1B
100
AcDbEntity
  8
0
  6
Continuous
 62
     0
100
AcDbLine
 10
5.0074810237
 20
9.4111087493
 30
0.0
 11
5.032481023699999
 21
9.386108749299999
 31
0.0
  0
LINE
  5
3F3
330
1B
100
AcDbEntity
  8
0
  6
Continuous
 62
     0
100
AcDbLine
 10
5.0074810237
 20
7.077108749299999
 30
0.0
 11
5.032481023699999
 21
7.102108749299999
 31
0.0
  0
LINE
  5
3F4
330
1B
100
AcDbEntity
  8
0
  6
Continuous
 62
     0
100
AcDbLine
 10
5.367481023699999
 20
7.211108749299999
 30
0.0
 11
5.3424810237
 21
7.186108749299999
 31
0.0
  0
LINE
  5
3F5
330
1B
100
AcDbEntity
  8
0
  6
Continuous
 62
     0
100
AcDbLine
 10
5.0074810237
 20
6.702108749299999
 30
0.0
 11
5.032481023699999
 21
6.727108749299999
 31
0.0
  0
LINE
  5
3F6
330
1B
100
AcDbEntity
  8
0
  6
Continuous
 62
     0
100
AcDbLine
 10
5.367481023699999
 20
6.836108749299999
 30
0.0
 11
5.3424810237
 21
6.811108749299999
 31
0.0
  0
LINE
  5
3F7
330
1B
100
AcDbEntity
  8
0
  6
Continuous
 62
     0
100
AcDbLine
 10
5.0684810237
 20
6.505108749299999
 30
0.0
 11
5.048481023699999
 21
6.485108749299999
 31
0.0
  0
LINE
  5
3F8
330
1B
100
AcDbEntity
  8
0
  6
Continuous
 62
     0
100
AcDbLine
 10
4.9964810237
 20
6.433108749299999
 30
0.0
 11
5.016481023699999
 21
6.453108749299999
 31
0.0
  0
LINE
  5
3F9
330
1B
100
AcDbEntity
  8
0
  6
Continuous
 62
     0
100
AcDbLine
 10
4.902981023699999
 20
6.1134978686
 30
0.0
 11
4.952481023699999
 21
6.1134978686
 31
0.0
  0
LINE
  5
3FA
330
1B
100
AcDbEntity
  8
0
  6
Continuous
 62
     0
100
AcDbLine
 10
5.422481023699999
 20
6.1134978686
 30
0.0
 11
5.4529810237
 21
6.1134978686
 31
0.0
  0
LINE
  5
3FB
330
1B
100
AcDbEntity
  8
0
  6
Continuous
 62
     0
100
AcDbLine
 10
8.552981023699999
 20
6.1134978686
 30
0.0
 11
8.602481023699999
 21
6.1134978686
 31
0.0
  0
LINE
  5
3FC
330
1B
100
AcDbEntity
  8
0
  6
Continuous
 62
     0
100
AcDbLine
 10
9.072481023699999
 20
6.1134978686
 30
0.0
 11
9.102981023699999
 21
6.1134978686
 31
0.0
  0
LINE
  5
3FD
330
1B
100
AcDbEntity
  8
0
  6
Continuous
 62
     0
100
AcDbLine
 10
9.102981023699999
 20
6.114108749299999
 30
0.0
 11
9.072481023699999
 21
6.114108749299999
 31
0.0
  0
LINE
  5
3FE
330
1B
100
AcDbEntity
  8
0
  6
Continuous
 62
     0
100
AcDbLine
 10
8.602481023699999
 20
6.114108749299999
 30
0.0
 11
8.552981023699999
 21
6.114108749299999
 31
0.0
  0
LINE
  5
3FF
330
1B
100
AcDbEntity
  8
0
  6
Continuous
 62
     0
100
AcDbLine
 10
5.4529810237
 20
6.114108749299999
 30
0.0
 11
5.422481023699999
 21
6.114108749299999
 31
0.0
  0
LINE
  5
400
330
1B
100
AcDbEntity
  8
0
  6
Continuous
 62
     0
100
AcDbLine
 10
4.952481023699999
 20
6.114108749299999
 30
0.0
 11
4.902981023699999
 21
6.114108749299999
 31
0.0
  0
LINE
  5
401
330
1B
100
AcDbEntity
  8
0
  6
Continuous
 62
     0
100
AcDbLine
 10
4.952481023699999
 20
6.169108749299999
 30
0.0
 11
5.422481023699999
 21
6.169108749299999
 31
0.0
  0
LINE
  5
402
330
1B
100
AcDbEntity
  8
0
  6
Continuous
 62
     0
100
AcDbLine
 10
8.602481023699999
 20
6.169108749299999
 30
0.0
 11
9.072481023699999
 21
6.169108749299999
 31
0.0
  0
LINE
  5
403
330
1B
100
AcDbEntity
  8
0
  6
Continuous
 62
     0
100
AcDbLine
 10
4.9964810237
 20
6.233108749299999
 30
0.0
 11
5.0684810237
 21
6.233108749299999
 31
0.0
  0
LINE
  5
404
330
1B
100
AcDbEntity
  8
0
  6
Continuous
 62
     0
100
AcDbLine
 10
5.0998110237
 20
6.233108749299999
 30
0.0
 11
5.1718110237
 21
6.233108749299999
 31
0.0
  0
LINE
  5
405
330
1B
100
AcDbEntity
  8
0
  6
Continuous
 62
     0
100
AcDbLine
 10
5.203141023699999
 20
6.233108749299999
 30
0.0
 11
5.275141023699999
 21
6.233108749299999
 31
0.0
  0
LINE
  5
406
330
1B
100
AcDbEntity
  8
0
  6
Continuous
 62
     0
100
AcDbLine
 10
5.3064710237
 20
6.233108749299999
 30
0.0
 11
5.3784710237
 21
6.233108749299999
 31
0.0
  0
LINE
  5
407
330
1B
100
AcDbEntity
  8
0
  6
Continuous
 62
     0
100
AcDbLine
 10
8.646481023699999
 20
6.233108749299999
 30
0.0
 11
8.7184810237
 21
6.233108749299999
 31
0.0
  0
LINE
  5
408
330
1B
100
AcDbEntity
  8
0
  6
Continuous
 62
     0
100
AcDbLine
 10
8.749811023699999
 20
6.233108749299999
 30
0.0
 11
8.8218110237
 21
6.233108749299999
 31
0.0
  0
LINE
  5
409
330
1B
100
AcDbEntity
  8
0
  6
Continuous
 62
     0
100
AcDbLine
 10
8.853141023699999
 20
6.233108749299999
 30
0.0
 11
8.9251410237
 21
6.233108749299999
 31
0.0
  0
LINE
  5
40A
330
1B
100
AcDbEntity
  8
0
  6
Continuous
 62
     0
100
AcDbLine
 10
8.9564710237
 20
6.233108749299999
 30
0.0
 11
9.028471023699999
 21
6.233108749299999
 31
0.0
  0
LINE
  5
40B
330
1B
100
AcDbEntity
  8
0
  6
Continuous
 62
     0
100
AcDbLine
 10
5.016481023699999
 20
6.253108749299999
 30
0.0
 11
5.048481023699999
 21
6.253108749299999
 31
0.0
  0
LINE
  5
40C
330
1B
100
AcDbEntity
  8
0
  6
Continuous
 62
     0
100
AcDbLine
 10
5.119811023699999
 20
6.253108749299999
 30
0.0
 11
5.151811023699999
 21
6.253108749299999
 31
0.0
  0
LINE
  5
40D
330
1B
100
AcDbEntity
  8
0
  6
Continuous
 62
     0
100
AcDbLine
 10
5.2231410237
 20
6.253108749299999
 30
0.0
 11
5.2551410237
 21
6.253108749299999
 31
0.0
  0
LINE
  5
40E
330
1B
100
AcDbEntity
  8
0
  6
Continuous
 62
     0
100
AcDbLine
 10
5.326471023699999
 20
6.253108749299999
 30
0.0
 11
5.358471023699999
 21
6.253108749299999
 31
0.0
  0
LINE
  5
40F
330
1B
100
AcDbEntity
  8
0
  6
Continuous
 62
     0
100
AcDbLine
 10
8.666481023699999
 20
6.253108749299999
 30
0.0
 11
8.698481023699999
 21
6.253108749299999
 31
0.0
  0
LINE
  5
410
330
1B
100
AcDbEntity
  8
0
  6
Continuous
 62
     0
100
AcDbLine
 10
8.7698110237
 20
6.253108749299999
 30
0.0
 11
8.8018110237
 21
6.253108749299999
 31
0.0
  0
LINE
  5
411
330
1B
100
AcDbEntity
  8
0
  6
Continuous
 62
     0
100
AcDbLine
 10
8.8731410237
 20
6.253108749299999
 30
0.0
 11
8.9051410237
 21
6.253108749299999
 31
0.0
  0
LINE
  5
412
330
1B
100
AcDbEntity
  8
0
  6
Continuous
 62
     0
100
AcDbLine
 10
8.9764710237
 20
6.253108749299999
 30
0.0
 11
9.0084710237
 21
6.253108749299999
 31
0.0
  0
LINE
  5
413
330
1B
100
AcDbEntity
  8
0
  6
Continuous
 62
     0
100
AcDbLine
 10
9.0084710237
 20
6.285108749299999
 30
0.0
 11
8.9764710237
 21
6.285108749299999
 31
0.0
  0
LINE
  5
414
330
1B
100
AcDbEntity
  8
0
  6
Continuous
 62
     0
100
AcDbLine
 10
8.9051410237
 20
6.285108749299999
 30
0.0
 11
8.8731410237
 21
6.285108749299999
 31
0.0
  0
LINE
  5
415
330
1B
100
AcDbEntity
  8
0
  6
Continuous
 62
     0
100
AcDbLine
 10
8.8018110237
 20
6.285108749299999
 30
0.0
 11
8.7698110237
 21
6.285108749299999
 31
0.0
  0
LINE
  5
416
330
1B
100
AcDbEntity
  8
0
  6
Continuous
 62
     0
100
AcDbLine
 10
8.698481023699999
 20
6.285108749299999
 30
0.0
 11
8.666481023699999
 21
6.285108749299999
 31
0.0
  0
LINE
  5
417
330
1B
100
AcDbEntity
  8
0
  6
Continuous
 62
     0
100
AcDbLine
 10
5.358471023699999
 20
6.285108749299999
 30
0.0
 11
5.326471023699999
 21
6.285108749299999
 31
0.0
  0
LINE
  5
418
330
1B
100
AcDbEntity
  8
0
  6
Continuous
 62
     0
100
AcDbLine
 10
5.2551410237
 20
6.285108749299999
 30
0.0
 11
5.2231410237
 21
6.285108749299999
 31
0.0
  0
LINE
  5
419
330
1B
100
AcDbEntity
  8
0
  6
Continuous
 62
     0
100
AcDbLine
 10
5.151811023699999
 20
6.285108749299999
 30
0.0
 11
5.119811023699999
 21
6.285108749299999
 31
0.0
  0
LINE
  5
41A
330
1B
100
AcDbEntity
  8
0
  6
Continuous
 62
     0
100
AcDbLine
 10
5.048481023699999
 20
6.285108749299999
 30
0.0
 11
5.016481023699999
 21
6.285108749299999
 31
0.0
  0
LINE
  5
41B
330
1B
100
AcDbEntity
  8
0
  6
Continuous
 62
     0
100
AcDbLine
 10
9.028471023699999
 20
6.305108749299999
 30
0.0
 11
8.9564710237
 21
6.305108749299999
 31
0.0
  0
LINE
  5
41C
330
1B
100
AcDbEntity
  8
0
  6
Continuous
 62
     0
100
AcDbLine
 10
8.9251410237
 20
6.305108749299999
 30
0.0
 11
8.853141023699999
 21
6.305108749299999
 31
0.0
  0
LINE
  5
41D
330
1B
100
AcDbEntity
  8
0
  6
Continuous
 62
     0
100
AcDbLine
 10
8.8218110237
 20
6.305108749299999
 30
0.0
 11
8.749811023699999
 21
6.305108749299999
 31
0.0
  0
LINE
  5
41E
330
1B
100
AcDbEntity
  8
0
  6
Continuous
 62
     0
100
AcDbLine
 10
8.7184810237
 20
6.305108749299999
 30
0.0
 11
8.646481023699999
 21
6.305108749299999
 31
0.0
  0
LINE
  5
41F
330
1B
100
AcDbEntity
  8
0
  6
Continuous
 62
     0
100
AcDbLine
 10
5.3784710237
 20
6.305108749299999
 30
0.0
 11
5.3064710237
 21
6.305108749299999
 31
0.0
  0
LINE
  5
420
330
1B
100
AcDbEntity
  8
0
  6
Continuous
 62
     0
100
AcDbLine
 10
5.275141023699999
 20
6.305108749299999
 30
0.0
 11
5.203141023699999
 21
6.305108749299999
 31
0.0
  0
LINE
  5
421
330
1B
100
AcDbEntity
  8
0
  6
Continuous
 62
     0
100
AcDbLine
 10
5.1718110237
 20
6.305108749299999
 30
0.0
 11
5.0998110237
 21
6.305108749299999
 31
0.0
  0
LINE
  5
422
330
1B
100
AcDbEntity
  8
0
  6
Continuous
 62
     0
100
AcDbLine
 10
5.0684810237
 20
6.305108749299999
 30
0.0
 11
4.9964810237
 21
6.305108749299999
 31
0.0
  0
LINE
  5
423
330
1B
100
AcDbEntity
  8
0
  6
Continuous
 62
     0
100
AcDbLine
 10
4.9964810237
 20
6.333108749299999
 30
0.0
 11
5.0684810237
 21
6.333108749299999
 31
0.0
  0
LINE
  5
424
330
1B
100
AcDbEntity
  8
0
  6
Continuous
 62
     0
100
AcDbLine
 10
5.0998110237
 20
6.333108749299999
 30
0.0
 11
5.1718110237
 21
6.333108749299999
 31
0.0
  0
LINE
  5
425
330
1B
100
AcDbEntity
  8
0
  6
Continuous
 62
     0
100
AcDbLine
 10
5.203141023699999
 20
6.333108749299999
 30
0.0
 11
5.275141023699999
 21
6.333108749299999
 31
0.0
  0
LINE
  5
426
330
1B
100
AcDbEntity
  8
0
  6
Continuous
 62
     0
100
AcDbLine
 10
5.3064710237
 20
6.333108749299999
 30
0.0
 11
5.3784710237
 21
6.333108749299999
 31
0.0
  0
LINE
  5
427
330
1B
100
AcDbEntity
  8
0
  6
Continuous
 62
     0
100
AcDbLine
 10
8.646481023699999
 20
6.333108749299999
 30
0.0
 11
8.7184810237
 21
6.333108749299999
 31
0.0
  0
LINE
  5
428
330
1B
100
AcDbEntity
  8
0
  6
Continuous
 62
     0
100
AcDbLine
 10
8.749811023699999
 20
6.333108749299999
 30
0.0
 11
8.8218110237
 21
6.333108749299999
 31
0.0
  0
LINE
  5
429
330
1B
100
AcDbEntity
  8
0
  6
Continuous
 62
     0
100
AcDbLine
 10
8.853141023699999
 20
6.333108749299999
 30
0.0
 11
8.9251410237
 21
6.333108749299999
 31
0.0
  0
LINE
  5
42A
330
1B
100
AcDbEntity
  8
0
  6
Continuous
 62
     0
100
AcDbLine
 10
8.9564710237
 20
6.333108749299999
 30
0.0
 11
9.028471023699999
 21
6.333108749299999
 31
0.0
  0
LINE
  5
42B
330
1B
100
AcDbEntity
  8
0
  6
Continuous
 62
     0
100
AcDbLine
 10
5.016481023699999
 20
6.353108749299999
 30
0.0
 11
5.048481023699999
 21
6.353108749299999
 31
0.0
  0
LINE
  5
42C
330
1B
100
AcDbEntity
  8
0
  6
Continuous
 62
     0
100
AcDbLine
 10
5.119811023699999
 20
6.353108749299999
 30
0.0
 11
5.151811023699999
 21
6.353108749299999
 31
0.0
  0
LINE
  5
42D
330
1B
100
AcDbEntity
  8
0
  6
Continuous
 62
     0
100
AcDbLine
 10
5.2231410237
 20
6.353108749299999
 30
0.0
 11
5.2551410237
 21
6.353108749299999
 31
0.0
  0
LINE
  5
42E
330
1B
100
AcDbEntity
  8
0
  6
Continuous
 62
     0
100
AcDbLine
 10
5.326471023699999
 20
6.353108749299999
 30
0.0
 11
5.358471023699999
 21
6.353108749299999
 31
0.0
  0
LINE
  5
42F
330
1B
100
AcDbEntity
  8
0
  6
Continuous
 62
     0
100
AcDbLine
 10
8.666481023699999
 20
6.353108749299999
 30
0.0
 11
8.698481023699999
 21
6.353108749299999
 31
0.0
  0
LINE
  5
430
330
1B
100
AcDbEntity
  8
0
  6
Continuous
 62
     0
100
AcDbLine
 10
8.7698110237
 20
6.353108749299999
 30
0.0
 11
8.8018110237
 21
6.353108749299999
 31
0.0
  0
LINE
  5
431
330
1B
100
AcDbEntity
  8
0
  6
Continuous
 62
     0
100
AcDbLine
 10
8.8731410237
 20
6.353108749299999
 30
0.0
 11
8.9051410237
 21
6.353108749299999
 31
0.0
  0
LINE
  5
432
330
1B
100
AcDbEntity
  8
0
  6
Continuous
 62
     0
100
AcDbLine
 10
8.9764710237
 20
6.353108749299999
 30
0.0
 11
9.0084710237
 21
6.353108749299999
 31
0.0
  0
LINE
  5
433
330
1B
100
AcDbEntity
  8
0
  6
Continuous
 62
     0
100
AcDbLine
 10
9.0084710237
 20
6.385108749299999
 30
0.0
 11
8.9764710237
 21
6.385108749299999
 31
0.0
  0
LINE
  5
434
330
1B
100
AcDbEntity
  8
0
  6
Continuous
 62
     0
100
AcDbLine
 10
8.9051410237
 20
6.385108749299999
 30
0.0
 11
8.8731410237
 21
6.385108749299999
 31
0.0
  0
LINE
  5
435
330
1B
100
AcDbEntity
  8
0
  6
Continuous
 62
     0
100
AcDbLine
 10
8.8018110237
 20
6.385108749299999
 30
0.0
 11
8.7698110237
 21
6.385108749299999
 31
0.0
  0
LINE
  5
436
330
1B
100
AcDbEntity
  8
0
  6
Continuous
 62
     0
100
AcDbLine
 10
8.698481023699999
 20
6.385108749299999
 30
0.0
 11
8.666481023699999
 21
6.385108749299999
 31
0.0
  0
LINE
  5
437
330
1B
100
AcDbEntity
  8
0
  6
Continuous
 62
     0
100
AcDbLine
 10
5.358471023699999
 20
6.385108749299999
 30
0.0
 11
5.326471023699999
 21
6.385108749299999
 31
0.0
  0
LINE
  5
438
330
1B
100
AcDbEntity
  8
0
  6
Continuous
 62
     0
100
AcDbLine
 10
5.2551410237
 20
6.385108749299999
 30
0.0
 11
5.2231410237
 21
6.385108749299999
 31
0.0
  0
LINE
  5
439
330
1B
100
AcDbEntity
  8
0
  6
Continuous
 62
     0
100
AcDbLine
 10
5.151811023699999
 20
6.385108749299999
 30
0.0
 11
5.119811023699999
 21
6.385108749299999
 31
0.0
  0
LINE
  5
43A
330
1B
100
AcDbEntity
  8
0
  6
Continuous
 62
     0
100
AcDbLine
 10
5.048481023699999
 20
6.385108749299999
 30
0.0
 11
5.016481023699999
 21
6.385108749299999
 31
0.0
  0
LINE
  5
43B
330
1B
100
AcDbEntity
  8
0
  6
Continuous
 62
     0
100
AcDbLine
 10
9.028471023699999
 20
6.405108749299999
 30
0.0
 11
8.9564710237
 21
6.405108749299999
 31
0.0
  0
LINE
  5
43C
330
1B
100
AcDbEntity
  8
0
  6
Continuous
 62
     0
100
AcDbLine
 10
8.9251410237
 20
6.405108749299999
 30
0.0
 11
8.853141023699999
 21
6.405108749299999
 31
0.0
  0
LINE
  5
43D
330
1B
100
AcDbEntity
  8
0
  6
Continuous
 62
     0
100
AcDbLine
 10
8.8218110237
 20
6.405108749299999
 30
0.0
 11
8.749811023699999
 21
6.405108749299999
 31
0.0
  0
LINE
  5
43E
330
1B
100
AcDbEntity
  8
0
  6
Continuous
 62
     0
100
AcDbLine
 10
8.7184810237
 20
6.405108749299999
 30
0.0
 11
8.646481023699999
 21
6.405108749299999
 31
0.0
  0
LINE
  5
43F
330
1B
100
AcDbEntity
  8
0
  6
Continuous
 62
     0
100
AcDbLine
 10
5.3784710237
 20
6.405108749299999
 30
0.0
 11
5.3064710237
 21
6.405108749299999
 31
0.0
  0
LINE
  5
440
330
1B
100
AcDbEntity
  8
0
  6
Continuous
 62
     0
100
AcDbLine
 10
5.275141023699999
 20
6.405108749299999
 30
0.0
 11
5.203141023699999
 21
6.405108749299999
 31
0.0
  0
LINE
  5
441
330
1B
100
AcDbEntity
  8
0
  6
Continuous
 62
     0
100
AcDbLine
 10
5.1718110237
 20
6.405108749299999
 30
0.0
 11
5.0998110237
 21
6.405108749299999
 31
0.0
  0
LINE
  5
442
330
1B
100
AcDbEntity
  8
0
  6
Continuous
 62
     0
100
AcDbLine
 10
5.0684810237
 20
6.405108749299999
 30
0.0
 11
4.9964810237
 21
6.405108749299999
 31
0.0
  0
LINE
  5
443
330
1B
100
AcDbEntity
  8
0
  6
Continuous
 62
     0
100
AcDbLine
 10
4.9964810237
 20
6.433108749299999
 30
0.0
 11
5.0684810237
 21
6.433108749299999
 31
0.0
  0
LINE
  5
444
330
1B
100
AcDbEntity
  8
0
  6
Continuous
 62
     0
100
AcDbLine
 10
5.0998110237
 20
6.433108749299999
 30
0.0
 11
5.1718110237
 21
6.433108749299999
 31
0.0
  0
LINE
  5
445
330
1B
100
AcDbEntity
  8
0
  6
Continuous
 62
     0
100
AcDbLine
 10
5.203141023699999
 20
6.433108749299999
 30
0.0
 11
5.275141023699999
 21
6.433108749299999
 31
0.0
  0
LINE
  5
446
330
1B
100
AcDbEntity
  8
0
  6
Continuous
 62
     0
100
AcDbLine
 10
5.3064710237
 20
6.433108749299999
 30
0.0
 11
5.3784710237
 21
6.433108749299999
 31
0.0
  0
LINE
  5
447
330
1B
100
AcDbEntity
  8
0
  6
Continuous
 62
     0
100
AcDbLine
 10
8.646481023699999
 20
6.433108749299999
 30
0.0
 11
8.7184810237
 21
6.433108749299999
 31
0.0
  0
LINE
  5
448
330
1B
100
AcDbEntity
  8
0
  6
Continuous
 62
     0
100
AcDbLine
 10
8.749811023699999
 20
6.433108749299999
 30
0.0
 11
8.8218110237
 21
6.433108749299999
 31
0.0
  0
LINE
  5
449
330
1B
100
AcDbEntity
  8
0
  6
Continuous
 62
     0
100
AcDbLine
 10
8.853141023699999
 20
6.433108749299999
 30
0.0
 11
8.9251410237
 21
6.433108749299999
 31
0.0
  0
LINE
  5
44A
330
1B
100
AcDbEntity
  8
0
  6
Continuous
 62
     0
100
AcDbLine
 10
8.9564710237
 20
6.433108749299999
 30
0.0
 11
9.028471023699999
 21
6.433108749299999
 31
0.0
  0
LINE
  5
44B
330
1B
100
AcDbEntity
  8
0
  6
Continuous
 62
     0
100
AcDbLine
 10
5.016481023699999
 20
6.453108749299999
 30
0.0
 11
5.048481023699999
 21
6.453108749299999
 31
0.0
  0
LINE
  5
44C
330
1B
100
AcDbEntity
  8
0
  6
Continuous
 62
     0
100
AcDbLine
 10
5.119811023699999
 20
6.453108749299999
 30
0.0
 11
5.151811023699999
 21
6.453108749299999
 31
0.0
  0
LINE
  5
44D
330
1B
100
AcDbEntity
  8
0
  6
Continuous
 62
     0
100
AcDbLine
 10
5.2231410237
 20
6.453108749299999
 30
0.0
 11
5.2551410237
 21
6.453108749299999
 31
0.0
  0
LINE
  5
44E
330
1B
100
AcDbEntity
  8
0
  6
Continuous
 62
     0
100
AcDbLine
 10
5.326471023699999
 20
6.453108749299999
 30
0.0
 11
5.358471023699999
 21
6.453108749299999
 31
0.0
  0
LINE
  5
44F
330
1B
100
AcDbEntity
  8
0
  6
Continuous
 62
     0
100
AcDbLine
 10
8.666481023699999
 20
6.453108749299999
 30
0.0
 11
8.698481023699999
 21
6.453108749299999
 31
0.0
  0
LINE
  5
450
330
1B
100
AcDbEntity
  8
0
  6
Continuous
 62
     0
100
AcDbLine
 10
8.7698110237
 20
6.453108749299999
 30
0.0
 11
8.8018110237
 21
6.453108749299999
 31
0.0
  0
LINE
  5
451
330
1B
100
AcDbEntity
  8
0
  6
Continuous
 62
     0
100
AcDbLine
 10
8.8731410237
 20
6.453108749299999
 30
0.0
 11
8.9051410237
 21
6.453108749299999
 31
0.0
  0
LINE
  5
452
330
1B
100
AcDbEntity
  8
0
  6
Continuous
 62
     0
100
AcDbLine
 10
8.9764710237
 20
6.453108749299999
 30
0.0
 11
9.0084710237
 21
6.453108749299999
 31
0.0
  0
LINE
  5
453
330
1B
100
AcDbEntity
  8
0
  6
Continuous
 62
     0
100
AcDbLine
 10
9.0084710237
 20
6.485108749299999
 30
0.0
 11
8.9764710237
 21
6.485108749299999
 31
0.0
  0
LINE
  5
454
330
1B
100
AcDbEntity
  8
0
  6
Continuous
 62
     0
100
AcDbLine
 10
8.9051410237
 20
6.485108749299999
 30
0.0
 11
8.8731410237
 21
6.485108749299999
 31
0.0
  0
LINE
  5
455
330
1B
100
AcDbEntity
  8
0
  6
Continuous
 62
     0
100
AcDbLine
 10
8.8018110237
 20
6.485108749299999
 30
0.0
 11
8.7698110237
 21
6.485108749299999
 31
0.0
  0
LINE
  5
456
330
1B
100
AcDbEntity
  8
0
  6
Continuous
 62
     0
100
AcDbLine
 10
8.698481023699999
 20
6.485108749299999
 30
0.0
 11
8.666481023699999
 21
6.485108749299999
 31
0.0
  0
LINE
  5
457
330
1B
100
AcDbEntity
  8
0
  6
Continuous
 62
     0
100
AcDbLine
 10
5.358471023699999
 20
6.485108749299999
 30
0.0
 11
5.326471023699999
 21
6.485108749299999
 31
0.0
  0
LINE
  5
458
330
1B
100
AcDbEntity
  8
0
  6
Continuous
 62
     0
100
AcDbLine
 10
5.2551410237
 20
6.485108749299999
 30
0.0
 11
5.2231410237
 21
6.485108749299999
 31
0.0
  0
LINE
  5
459
330
1B
100
AcDbEntity
  8
0
  6
Continuous
 62
     0
100
AcDbLine
 10
5.151811023699999
 20
6.485108749299999
 30
0.0
 11
5.119811023699999
 21
6.485108749299999
 31
0.0
  0
LINE
  5
45A
330
1B
100
AcDbEntity
  8
0
  6
Continuous
 62
     0
100
AcDbLine
 10
5.048481023699999
 20
6.485108749299999
 30
0.0
 11
5.016481023699999
 21
6.485108749299999
 31
0.0
  0
LINE
  5
45B
330
1B
100
AcDbEntity
  8
0
  6
Continuous
 62
     0
100
AcDbLine
 10
5.0074810237
 20
9.611108749299999
 30
0.0
 11
5.032481023699999
 21
9.586108749299999
 31
0.0
  0
LINE
  5
45C
330
1B
100
AcDbEntity
  8
0
  6
Continuous
 62
     0
100
AcDbLine
 10
5.367481023699999
 20
9.277108749299999
 30
0.0
 11
5.3424810237
 21
9.3021087493
 31
0.0
  0
LINE
  5
45D
330
1B
100
AcDbEntity
  8
0
  6
Continuous
 62
     0
100
AcDbLine
 10
5.367481023699999
 20
9.477108749299999
 30
0.0
 11
5.3424810237
 21
9.502108749299999
 31
0.0
  0
LINE
  5
45E
330
1B
100
AcDbEntity
  8
0
  6
Continuous
 62
     0
100
AcDbLine
 10
8.7184810237
 20
6.233108749299999
 30
0.0
 11
8.698481023699999
 21
6.253108749299999
 31
0.0
  0
LINE
  5
45F
330
1B
100
AcDbEntity
  8
0
  6
Continuous
 62
     0
100
AcDbLine
 10
8.646481023699999
 20
6.305108749299999
 30
0.0
 11
8.666481023699999
 21
6.285108749299999
 31
0.0
  0
LINE
  5
460
330
1B
100
AcDbEntity
  8
0
  6
Continuous
 62
     0
100
AcDbLine
 10
8.7184810237
 20
6.333108749299999
 30
0.0
 11
8.698481023699999
 21
6.353108749299999
 31
0.0
  0
LINE
  5
461
330
1B
100
AcDbEntity
  8
0
  6
Continuous
 62
     0
100
AcDbLine
 10
8.646481023699999
 20
6.405108749299999
 30
0.0
 11
8.666481023699999
 21
6.385108749299999
 31
0.0
  0
LINE
  5
462
330
1B
100
AcDbEntity
  8
0
  6
Continuous
 62
     0
100
AcDbLine
 10
8.8218110237
 20
6.233108749299999
 30
0.0
 11
8.8018110237
 21
6.253108749299999
 31
0.0
  0
LINE
  5
463
330
1B
100
AcDbEntity
  8
0
  6
Continuous
 62
     0
100
AcDbLine
 10
8.749811023699999
 20
6.305108749299999
 30
0.0
 11
8.7698110237
 21
6.285108749299999
 31
0.0
  0
LINE
  5
464
330
1B
100
AcDbEntity
  8
0
  6
Continuous
 62
     0
100
AcDbLine
 10
8.7184810237
 20
6.433108749299999
 30
0.0
 11
8.698481023699999
 21
6.453108749299999
 31
0.0
  0
LINE
  5
465
330
1B
100
AcDbEntity
  8
0
  6
Continuous
 62
     0
100
AcDbLine
 10
8.646481023699999
 20
6.505108749299999
 30
0.0
 11
8.666481023699999
 21
6.485108749299999
 31
0.0
  0
LINE
  5
466
330
1B
100
AcDbEntity
  8
0
  6
Continuous
 62
     0
100
AcDbLine
 10
7.787481023699999
 20
12.6391087493
 30
0.0
 11
7.787481023699999
 21
13.0391087493
 31
0.0
  0
LINE
  5
467
330
1B
100
AcDbEntity
  8
0
  6
Continuous
 62
     0
100
AcDbLine
 10
7.8212310237
 20
4.5391087493
 30
0.0
 11
7.8212310237
 21
4.309741687999999
 31
0.0
  0
LINE
  5
468
330
1B
100
AcDbEntity
  8
0
  6
Continuous
 62
     0
100
AcDbLine
 10
7.9374810237
 20
12.9195087493
 30
0.0
 11
7.9374810237
 21
13.0391087493
 31
0.0
  0
LINE
  5
469
330
1B
100
AcDbEntity
  8
0
  6
Continuous
 62
     0
100
AcDbLine
 10
5.0684810237
 20
6.405108749299999
 30
0.0
 11
5.048481023699999
 21
6.385108749299999
 31
0.0
  0
LINE
  5
46A
330
1B
100
AcDbEntity
  8
0
  6
Continuous
 62
     0
100
AcDbLine
 10
4.9964810237
 20
6.333108749299999
 30
0.0
 11
5.016481023699999
 21
6.353108749299999
 31
0.0
  0
LINE
  5
46B
330
1B
100
AcDbEntity
  8
0
  6
Continuous
 62
     0
100
AcDbLine
 10
5.1718110237
 20
6.505108749299999
 30
0.0
 11
5.151811023699999
 21
6.485108749299999
 31
0.0
  0
LINE
  5
46C
330
1B
100
AcDbEntity
  8
0
  6
Continuous
 62
     0
100
AcDbLine
 10
5.0998110237
 20
6.433108749299999
 30
0.0
 11
5.119811023699999
 21
6.453108749299999
 31
0.0
  0
LINE
  5
46D
330
1B
100
AcDbEntity
  8
0
  6
Continuous
 62
     0
100
AcDbLine
 10
5.0684810237
 20
6.305108749299999
 30
0.0
 11
5.048481023699999
 21
6.285108749299999
 31
0.0
  0
LINE
  5
46E
330
1B
100
AcDbEntity
  8
0
  6
Continuous
 62
     0
100
AcDbLine
 10
4.9964810237
 20
6.233108749299999
 30
0.0
 11
5.016481023699999
 21
6.253108749299999
 31
0.0
  0
LINE
  5
46F
330
1B
100
AcDbEntity
  8
0
  6
Continuous
 62
     0
100
AcDbLine
 10
5.1718110237
 20
6.405108749299999
 30
0.0
 11
5.151811023699999
 21
6.385108749299999
 31
0.0
  0
LINE
  5
470
330
1B
100
AcDbEntity
  8
0
  6
Continuous
 62
     0
100
AcDbLine
 10
5.0998110237
 20
6.333108749299999
 30
0.0
 11
5.119811023699999
 21
6.353108749299999
 31
0.0
  0
LINE
  5
471
330
1B
100
AcDbEntity
  8
0
  6
Continuous
 62
     0
100
AcDbLine
 10
5.275141023699999
 20
6.505108749299999
 30
0.0
 11
5.2551410237
 21
6.485108749299999
 31
0.0
  0
LINE
  5
472
330
1B
100
AcDbEntity
  8
0
  6
Continuous
 62
     0
100
AcDbLine
 10
5.203141023699999
 20
6.433108749299999
 30
0.0
 11
5.2231410237
 21
6.453108749299999
 31
0.0
  0
LINE
  5
473
330
1B
100
AcDbEntity
  8
0
  6
Continuous
 62
     0
100
AcDbLine
 10
5.1718110237
 20
6.305108749299999
 30
0.0
 11
5.151811023699999
 21
6.285108749299999
 31
0.0
  0
LINE
  5
474
330
1B
100
AcDbEntity
  8
0
  6
Continuous
 62
     0
100
AcDbLine
 10
5.0998110237
 20
6.233108749299999
 30
0.0
 11
5.119811023699999
 21
6.253108749299999
 31
0.0
  0
LINE
  5
475
330
1B
100
AcDbEntity
  8
0
  6
Continuous
 62
     0
100
AcDbLine
 10
5.275141023699999
 20
6.405108749299999
 30
0.0
 11
5.2551410237
 21
6.385108749299999
 31
0.0
  0
LINE
  5
476
330
1B
100
AcDbEntity
  8
0
  6
Continuous
 62
     0
100
AcDbLine
 10
5.203141023699999
 20
6.333108749299999
 30
0.0
 11
5.2231410237
 21
6.353108749299999
 31
0.0
  0
LINE
  5
477
330
1B
100
AcDbEntity
  8
0
  6
Continuous
 62
     0
100
AcDbLine
 10
5.3784710237
 20
6.505108749299999
 30
0.0
 11
5.358471023699999
 21
6.485108749299999
 31
0.0
  0
LINE
  5
478
330
1B
100
AcDbEntity
  8
0
  6
Continuous
 62
     0
100
AcDbLine
 10
5.3064710237
 20
6.433108749299999
 30
0.0
 11
5.326471023699999
 21
6.453108749299999
 31
0.0
  0
LINE
  5
479
330
1B
100
AcDbEntity
  8
0
  6
Continuous
 62
     0
100
AcDbLine
 10
5.275141023699999
 20
6.305108749299999
 30
0.0
 11
5.2551410237
 21
6.285108749299999
 31
0.0
  0
LINE
  5
47A
330
1B
100
AcDbEntity
  8
0
  6
Continuous
 62
     0
100
AcDbLine
 10
5.203141023699999
 20
6.233108749299999
 30
0.0
 11
5.2231410237
 21
6.253108749299999
 31
0.0
  0
LINE
  5
47B
330
1B
100
AcDbEntity
  8
0
  6
Continuous
 62
     0
100
AcDbLine
 10
5.3784710237
 20
6.405108749299999
 30
0.0
 11
5.358471023699999
 21
6.385108749299999
 31
0.0
  0
LINE
  5
47C
330
1B
100
AcDbEntity
  8
0
  6
Continuous
 62
     0
100
AcDbLine
 10
5.3064710237
 20
6.333108749299999
 30
0.0
 11
5.326471023699999
 21
6.353108749299999
 31
0.0
  0
LINE
  5
47D
330
1B
100
AcDbEntity
  8
0
  6
Continuous
 62
     0
100
AcDbLine
 10
5.3784710237
 20
6.305108749299999
 30
0.0
 11
5.358471023699999
 21
6.285108749299999
 31
0.0
  0
LINE
  5
47E
330
1B
100
AcDbEntity
  8
0
  6
Continuous
 62
     0
100
AcDbLine
 10
5.3064710237
 20
6.233108749299999
 30
0.0
 11
5.326471023699999
 21
6.253108749299999
 31
0.0
  0
LINE
  5
47F
330
1B
100
AcDbEntity
  8
0
  6
Continuous
 62
     0
100
AcDbLine
 10
8.6574810237
 20
9.477108749299999
 30
0.0
 11
8.682481023699999
 21
9.502108749299999
 31
0.0
  0
LINE
  5
480
330
1B
100
AcDbEntity
  8
0
  6
Continuous
 62
     0
100
AcDbLine
 10
9.028471023699999
 20
6.505108749299999
 30
0.0
 11
8.9564710237
 21
6.505108749299999
 31
0.0
  0
LINE
  5
481
330
1B
100
AcDbEntity
  8
0
  6
Continuous
 62
     0
100
AcDbLine
 10
8.9251410237
 20
6.505108749299999
 30
0.0
 11
8.853141023699999
 21
6.505108749299999
 31
0.0
  0
LINE
  5
482
330
1B
100
AcDbEntity
  8
0
  6
Continuous
 62
     0
100
AcDbLine
 10
8.8218110237
 20
6.505108749299999
 30
0.0
 11
8.749811023699999
 21
6.505108749299999
 31
0.0
  0
LINE
  5
483
330
1B
100
AcDbEntity
  8
0
  6
Continuous
 62
     0
100
AcDbLine
 10
8.7184810237
 20
6.505108749299999
 30
0.0
 11
8.646481023699999
 21
6.505108749299999
 31
0.0
  0
LINE
  5
484
330
1B
100
AcDbEntity
  8
0
  6
Continuous
 62
     0
100
AcDbLine
 10
5.3784710237
 20
6.505108749299999
 30
0.0
 11
5.3064710237
 21
6.505108749299999
 31
0.0
  0
LINE
  5
485
330
1B
100
AcDbEntity
  8
0
  6
Continuous
 62
     0
100
AcDbLine
 10
5.275141023699999
 20
6.505108749299999
 30
0.0
 11
5.203141023699999
 21
6.505108749299999
 31
0.0
  0
LINE
  5
486
330
1B
100
AcDbEntity
  8
0
  6
Continuous
 62
     0
100
AcDbLine
 10
5.1718110237
 20
6.505108749299999
 30
0.0
 11
5.0998110237
 21
6.505108749299999
 31
0.0
  0
LINE
  5
487
330
1B
100
AcDbEntity
  8
0
  6
Continuous
 62
     0
100
AcDbLine
 10
5.0684810237
 20
6.505108749299999
 30
0.0
 11
4.9964810237
 21
6.505108749299999
 31
0.0
  0
LINE
  5
488
330
1B
100
AcDbEntity
  8
0
  6
Continuous
 62
     0
100
AcDbLine
 10
5.0074810237
 20
6.535108749299999
 30
0.0
 11
5.367481023699999
 21
6.535108749299999
 31
0.0
  0
LINE
  5
489
330
1B
100
AcDbEntity
  8
0
  6
Continuous
 62
     0
100
AcDbLine
 10
8.6574810237
 20
6.535108749299999
 30
0.0
 11
9.0174810237
 21
6.535108749299999
 31
0.0
  0
LINE
  5
48A
330
1B
100
AcDbEntity
  8
0
  6
Continuous
 62
     0
100
AcDbLine
 10
9.0174810237
 20
6.672108749299999
 30
0.0
 11
8.6574810237
 21
6.672108749299999
 31
0.0
  0
LINE
  5
48B
330
1B
100
AcDbEntity
  8
0
  6
Continuous
 62
     0
100
AcDbLine
 10
5.367481023699999
 20
6.672108749299999
 30
0.0
 11
5.0074810237
 21
6.672108749299999
 31
0.0
  0
LINE
  5
48C
330
1B
100
AcDbEntity
  8
0
  6
Continuous
 62
     0
100
AcDbLine
 10
5.0074810237
 20
6.702108749299999
 30
0.0
 11
5.367481023699999
 21
6.702108749299999
 31
0.0
  0
LINE
  5
48D
330
1B
100
AcDbEntity
  8
0
  6
Continuous
 62
     0
100
AcDbLine
 10
8.6574810237
 20
6.702108749299999
 30
0.0
 11
9.0174810237
 21
6.702108749299999
 31
0.0
  0
LINE
  5
48E
330
1B
100
AcDbEntity
  8
0
  6
Continuous
 62
     0
100
AcDbLine
 10
5.032481023699999
 20
6.727108749299999
 30
0.0
 11
5.3424810237
 21
6.727108749299999
 31
0.0
  0
LINE
  5
48F
330
1B
100
AcDbEntity
  8
0
  6
Continuous
 62
     0
100
AcDbLine
 10
8.682481023699999
 20
6.727108749299999
 30
0.0
 11
8.992481023699999
 21
6.727108749299999
 31
0.0
  0
LINE
  5
490
330
1B
100
AcDbEntity
  8
0
  6
Continuous
 62
     0
100
AcDbLine
 10
5.032481023699999
 20
6.730608749299999
 30
0.0
 11
5.3424810237
 21
6.730608749299999
 31
0.0
  0
LINE
  5
491
330
1B
100
AcDbEntity
  8
0
  6
Continuous
 62
     0
100
AcDbLine
 10
8.682481023699999
 20
6.730608749299999
 30
0.0
 11
8.992481023699999
 21
6.730608749299999
 31
0.0
  0
LINE
  5
492
330
1B
100
AcDbEntity
  8
0
  6
Continuous
 62
     0
100
AcDbLine
 10
8.992481023699999
 20
6.807608749299999
 30
0.0
 11
8.682481023699999
 21
6.807608749299999
 31
0.0
  0
LINE
  5
493
330
1B
100
AcDbEntity
  8
0
  6
Continuous
 62
     0
100
AcDbLine
 10
5.3424810237
 20
6.807608749299999
 30
0.0
 11
5.032481023699999
 21
6.807608749299999
 31
0.0
  0
LINE
  5
494
330
1B
100
AcDbEntity
  8
0
  6
Continuous
 62
     0
100
AcDbLine
 10
8.992481023699999
 20
6.811108749299999
 30
0.0
 11
8.682481023699999
 21
6.811108749299999
 31
0.0
  0
LINE
  5
495
330
1B
100
AcDbEntity
  8
0
  6
Continuous
 62
     0
100
AcDbLine
 10
5.3424810237
 20
6.811108749299999
 30
0.0
 11
5.032481023699999
 21
6.811108749299999
 31
0.0
  0
LINE
  5
496
330
1B
100
AcDbEntity
  8
0
  6
Continuous
 62
     0
100
AcDbLine
 10
9.0174810237
 20
6.836108749299999
 30
0.0
 11
8.6574810237
 21
6.836108749299999
 31
0.0
  0
LINE
  5
497
330
1B
100
AcDbEntity
  8
0
  6
Continuous
 62
     0
100
AcDbLine
 10
5.367481023699999
 20
6.836108749299999
 30
0.0
 11
5.0074810237
 21
6.836108749299999
 31
0.0
  0
LINE
  5
498
330
1B
100
AcDbEntity
  8
0
  6
Continuous
 62
     0
100
AcDbLine
 10
5.0074810237
 20
6.866108749299999
 30
0.0
 11
5.367481023699999
 21
6.866108749299999
 31
0.0
  0
LINE
  5
499
330
1B
100
AcDbEntity
  8
0
  6
Continuous
 62
     0
100
AcDbLine
 10
8.6574810237
 20
6.866108749299999
 30
0.0
 11
9.0174810237
 21
6.866108749299999
 31
0.0
  0
LINE
  5
49A
330
1B
100
AcDbEntity
  8
0
  6
Continuous
 62
     0
100
AcDbLine
 10
8.8218110237
 20
6.333108749299999
 30
0.0
 11
8.8018110237
 21
6.353108749299999
 31
0.0
  0
LINE
  5
49B
330
1B
100
AcDbEntity
  8
0
  6
Continuous
 62
     0
100
AcDbLine
 10
8.749811023699999
 20
6.405108749299999
 30
0.0
 11
8.7698110237
 21
6.385108749299999
 31
0.0
  0
LINE
  5
49C
330
1B
100
AcDbEntity
  8
0
  6
Continuous
 62
     0
100
AcDbLine
 10
8.9251410237
 20
6.233108749299999
 30
0.0
 11
8.9051410237
 21
6.253108749299999
 31
0.0
  0
LINE
  5
49D
330
1B
100
AcDbEntity
  8
0
  6
Continuous
 62
     0
100
AcDbLine
 10
8.853141023699999
 20
6.305108749299999
 30
0.0
 11
8.8731410237
 21
6.285108749299999
 31
0.0
  0
LINE
  5
49E
330
1B
100
AcDbEntity
  8
0
  6
Continuous
 62
     0
100
AcDbLine
 10
8.8218110237
 20
6.433108749299999
 30
0.0
 11
8.8018110237
 21
6.453108749299999
 31
0.0
  0
LINE
  5
49F
330
1B
100
AcDbEntity
  8
0
  6
Continuous
 62
     0
100
AcDbLine
 10
8.749811023699999
 20
6.505108749299999
 30
0.0
 11
8.7698110237
 21
6.485108749299999
 31
0.0
  0
LINE
  5
4A0
330
1B
100
AcDbEntity
  8
0
  6
Continuous
 62
     0
100
AcDbLine
 10
8.9251410237
 20
6.333108749299999
 30
0.0
 11
8.9051410237
 21
6.353108749299999
 31
0.0
  0
LINE
  5
4A1
330
1B
100
AcDbEntity
  8
0
  6
Continuous
 62
     0
100
AcDbLine
 10
8.853141023699999
 20
6.405108749299999
 30
0.0
 11
8.8731410237
 21
6.385108749299999
 31
0.0
  0
LINE
  5
4A2
330
1B
100
AcDbEntity
  8
0
  6
Continuous
 62
     0
100
AcDbLine
 10
9.028471023699999
 20
6.233108749299999
 30
0.0
 11
9.0084710237
 21
6.253108749299999
 31
0.0
  0
LINE
  5
4A3
330
1B
100
AcDbEntity
  8
0
  6
Continuous
 62
     0
100
AcDbLine
 10
8.9564710237
 20
6.305108749299999
 30
0.0
 11
8.9764710237
 21
6.285108749299999
 31
0.0
  0
LINE
  5
4A4
330
1B
100
AcDbEntity
  8
0
  6
Continuous
 62
     0
100
AcDbLine
 10
8.9251410237
 20
6.433108749299999
 30
0.0
 11
8.9051410237
 21
6.453108749299999
 31
0.0
  0
LINE
  5
4A5
330
1B
100
AcDbEntity
  8
0
  6
Continuous
 62
     0
100
AcDbLine
 10
8.853141023699999
 20
6.505108749299999
 30
0.0
 11
8.8731410237
 21
6.485108749299999
 31
0.0
  0
LINE
  5
4A6
330
1B
100
AcDbEntity
  8
0
  6
Continuous
 62
     0
100
AcDbLine
 10
9.028471023699999
 20
6.333108749299999
 30
0.0
 11
9.0084710237
 21
6.353108749299999
 31
0.0
  0
LINE
  5
4A7
330
1B
100
AcDbEntity
  8
0
  6
Continuous
 62
     0
100
AcDbLine
 10
8.9564710237
 20
6.405108749299999
 30
0.0
 11
8.9764710237
 21
6.385108749299999
 31
0.0
  0
LINE
  5
4A8
330
1B
100
AcDbEntity
  8
0
  6
Continuous
 62
     0
100
AcDbLine
 10
9.028471023699999
 20
6.433108749299999
 30
0.0
 11
9.0084710237
 21
6.453108749299999
 31
0.0
  0
LINE
  5
4A9
330
1B
100
AcDbEntity
  8
0
  6
Continuous
 62
     0
100
AcDbLine
 10
8.9564710237
 20
6.505108749299999
 30
0.0
 11
8.9764710237
 21
6.485108749299999
 31
0.0
  0
LINE
  5
4AA
330
1B
100
AcDbEntity
  8
0
  6
Continuous
 62
     0
100
AcDbLine
 10
8.6574810237
 20
6.836108749299999
 30
0.0
 11
8.682481023699999
 21
6.811108749299999
 31
0.0
  0
LINE
  5
4AB
330
1B
100
AcDbEntity
  8
0
  6
Continuous
 62
     0
100
AcDbLine
 10
9.0174810237
 20
6.702108749299999
 30
0.0
 11
8.992481023699999
 21
6.727108749299999
 31
0.0
  0
LINE
  5
4AC
330
1B
100
AcDbEntity
  8
0
  6
Continuous
 62
     0
100
AcDbLine
 10
8.133731023699999
 20
4.309741687999999
 30
0.0
 11
8.133731023699999
 21
4.5391087493
 31
0.0
  0
LINE
  5
4AD
330
1B
100
AcDbEntity
  8
0
  6
Continuous
 62
     0
100
AcDbLine
 10
8.3274810237
 20
12.0391087493
 30
0.0
 11
8.3274810237
 21
11.5391087493
 31
0.0
  0
LINE
  5
4AE
330
1B
100
AcDbEntity
  8
0
  6
Continuous
 62
     0
100
AcDbLine
 10
8.6574810237
 20
9.277108749299999
 30
0.0
 11
8.682481023699999
 21
9.3021087493
 31
0.0
  0
LINE
  5
4AF
330
1B
100
AcDbEntity
  8
0
  6
Continuous
 62
     0
100
AcDbLine
 10
9.0174810237
 20
9.611108749299999
 30
0.0
 11
8.992481023699999
 21
9.586108749299999
 31
0.0
  0
LINE
  5
4B0
330
1B
100
AcDbEntity
  8
0
  6
Continuous
 62
     0
100
AcDbLine
 10
9.0174810237
 20
9.4111087493
 30
0.0
 11
8.992481023699999
 21
9.386108749299999
 31
0.0
  0
LINE
  5
4B1
330
1B
100
AcDbEntity
  8
0
  6
Continuous
 62
     0
100
AcDbLine
 10
9.0174810237
 20
7.047108749299999
 30
0.0
 11
8.6574810237
 21
7.047108749299999
 31
0.0
  0
LINE
  5
4B2
330
1B
100
AcDbEntity
  8
0
  6
Continuous
 62
     0
100
AcDbLine
 10
5.367481023699999
 20
7.047108749299999
 30
0.0
 11
5.0074810237
 21
7.047108749299999
 31
0.0
  0
LINE
  5
4B3
330
1B
100
AcDbEntity
  8
0
  6
Continuous
 62
     0
100
AcDbLine
 10
5.0074810237
 20
7.077108749299999
 30
0.0
 11
5.367481023699999
 21
7.077108749299999
 31
0.0
  0
LINE
  5
4B4
330
1B
100
AcDbEntity
  8
0
  6
Continuous
 62
     0
100
AcDbLine
 10
8.6574810237
 20
7.077108749299999
 30
0.0
 11
9.0174810237
 21
7.077108749299999
 31
0.0
  0
LINE
  5
4B5
330
1B
100
AcDbEntity
  8
0
  6
Continuous
 62
     0
100
AcDbLine
 10
5.032481023699999
 20
7.102108749299999
 30
0.0
 11
5.3424810237
 21
7.102108749299999
 31
0.0
  0
LINE
  5
4B6
330
1B
100
AcDbEntity
  8
0
  6
Continuous
 62
     0
100
AcDbLine
 10
8.682481023699999
 20
7.102108749299999
 30
0.0
 11
8.992481023699999
 21
7.102108749299999
 31
0.0
  0
LINE
  5
4B7
330
1B
100
AcDbEntity
  8
0
  6
Continuous
 62
     0
100
AcDbLine
 10
5.032481023699999
 20
7.105608749299999
 30
0.0
 11
5.3424810237
 21
7.105608749299999
 31
0.0
  0
LINE
  5
4B8
330
1B
100
AcDbEntity
  8
0
  6
Continuous
 62
     0
100
AcDbLine
 10
8.682481023699999
 20
7.105608749299999
 30
0.0
 11
8.992481023699999
 21
7.105608749299999
 31
0.0
  0
LINE
  5
4B9
330
1B
100
AcDbEntity
  8
0
  6
Continuous
 62
     0
100
AcDbLine
 10
8.992481023699999
 20
7.182608749299999
 30
0.0
 11
8.682481023699999
 21
7.182608749299999
 31
0.0
  0
LINE
  5
4BA
330
1B
100
AcDbEntity
  8
0
  6
Continuous
 62
     0
100
AcDbLine
 10
5.3424810237
 20
7.182608749299999
 30
0.0
 11
5.032481023699999
 21
7.182608749299999
 31
0.0
  0
LINE
  5
4BB
330
1B
100
AcDbEntity
  8
0
  6
Continuous
 62
     0
100
AcDbLine
 10
8.992481023699999
 20
7.186108749299999
 30
0.0
 11
8.682481023699999
 21
7.186108749299999
 31
0.0
  0
LINE
  5
4BC
330
1B
100
AcDbEntity
  8
0
  6
Continuous
 62
     0
100
AcDbLine
 10
5.3424810237
 20
7.186108749299999
 30
0.0
 11
5.032481023699999
 21
7.186108749299999
 31
0.0
  0
LINE
  5
4BD
330
1B
100
AcDbEntity
  8
0
  6
Continuous
 62
     0
100
AcDbLine
 10
9.0174810237
 20
7.211108749299999
 30
0.0
 11
8.6574810237
 21
7.211108749299999
 31
0.0
  0
LINE
  5
4BE
330
1B
100
AcDbEntity
  8
0
  6
Continuous
 62
     0
100
AcDbLine
 10
5.367481023699999
 20
7.211108749299999
 30
0.0
 11
5.0074810237
 21
7.211108749299999
 31
0.0
  0
LINE
  5
4BF
330
1B
100
AcDbEntity
  8
0
  6
Continuous
 62
     0
100
AcDbLine
 10
5.0074810237
 20
7.236108749299999
 30
0.0
 11
5.367481023699999
 21
7.236108749299999
 31
0.0
  0
LINE
  5
4C0
330
1B
100
AcDbEntity
  8
0
  6
Continuous
 62
     0
100
AcDbLine
 10
8.6574810237
 20
7.236108749299999
 30
0.0
 11
9.0174810237
 21
7.236108749299999
 31
0.0
  0
LINE
  5
4C1
330
1B
100
AcDbEntity
  8
0
  6
Continuous
 62
     0
100
AcDbLine
 10
4.902981023699999
 20
7.2648941674
 30
0.0
 11
4.952481023699999
 21
7.2648941674
 31
0.0
  0
LINE
  5
4C2
330
1B
100
AcDbEntity
  8
0
  6
Continuous
 62
     0
100
AcDbLine
 10
5.422481023699999
 20
7.2648941674
 30
0.0
 11
5.4529810237
 21
7.2648941674
 31
0.0
  0
LINE
  5
4C3
330
1B
100
AcDbEntity
  8
0
  6
Continuous
 62
     0
100
AcDbLine
 10
8.552981023699999
 20
7.2648941674
 30
0.0
 11
8.602481023699999
 21
7.2648941674
 31
0.0
  0
LINE
  5
4C4
330
1B
100
AcDbEntity
  8
0
  6
Continuous
 62
     0
100
AcDbLine
 10
9.072481023699999
 20
7.2648941674
 30
0.0
 11
9.102981023699999
 21
7.2648941674
 31
0.0
  0
LINE
  5
4C5
330
1B
100
AcDbEntity
  8
0
  6
Continuous
 62
     0
100
AcDbLine
 10
8.552981023699999
 20
7.265505048099999
 30
0.0
 11
8.570481023699999
 21
7.265505048099999
 31
0.0
  0
LINE
  5
4C6
330
1B
100
AcDbEntity
  8
0
  6
Continuous
 62
     0
100
AcDbLine
 10
4.902981023699999
 20
7.265723219799999
 30
0.0
 11
4.952481023699999
 21
7.265723219799999
 31
0.0
  0
LINE
  5
4C7
330
1B
100
AcDbEntity
  8
0
  6
Continuous
 62
     0
100
AcDbLine
 10
5.422481023699999
 20
7.265723219799999
 30
0.0
 11
5.4529810237
 21
7.265723219799999
 31
0.0
  0
LINE
  5
4C8
330
1B
100
AcDbEntity
  8
0
  6
Continuous
 62
     0
100
AcDbLine
 10
8.570481023699999
 20
7.265723219799999
 30
0.0
 11
8.602481023699999
 21
7.265723219799999
 31
0.0
  0
LINE
  5
4C9
330
1B
100
AcDbEntity
  8
0
  6
Continuous
 62
     0
100
AcDbLine
 10
9.072481023699999
 20
7.265723219799999
 30
0.0
 11
9.102981023699999
 21
7.265723219799999
 31
0.0
  0
LINE
  5
4CA
330
1B
100
AcDbEntity
  8
0
  6
Continuous
 62
     0
100
AcDbLine
 10
9.102981023699999
 20
7.324108749299999
 30
0.0
 11
9.072481023699999
 21
7.324108749299999
 31
0.0
  0
LINE
  5
4CB
330
1B
100
AcDbEntity
  8
0
  6
Continuous
 62
     0
100
AcDbLine
 10
8.602481023699999
 20
7.324108749299999
 30
0.0
 11
8.570481023699999
 21
7.324108749299999
 31
0.0
  0
LINE
  5
4CC
330
1B
100
AcDbEntity
  8
0
  6
Continuous
 62
     0
100
AcDbLine
 10
5.4529810237
 20
7.324108749299999
 30
0.0
 11
5.422481023699999
 21
7.324108749299999
 31
0.0
  0
LINE
  5
4CD
330
1B
100
AcDbEntity
  8
0
  6
Continuous
 62
     0
100
AcDbLine
 10
4.952481023699999
 20
7.324108749299999
 30
0.0
 11
4.902981023699999
 21
7.324108749299999
 31
0.0
  0
LINE
  5
4CE
330
1B
100
AcDbEntity
  8
0
  6
Continuous
 62
     0
100
AcDbLine
 10
4.902981023699999
 20
7.4034978686
 30
0.0
 11
4.952481023699999
 21
7.4034978686
 31
0.0
  0
LINE
  5
4CF
330
1B
100
AcDbEntity
  8
0
  6
Continuous
 62
     0
100
AcDbLine
 10
5.422481023699999
 20
7.4034978686
 30
0.0
 11
5.4529810237
 21
7.4034978686
 31
0.0
  0
LINE
  5
4D0
330
1B
100
AcDbEntity
  8
0
  6
Continuous
 62
     0
100
AcDbLine
 10
8.552981023699999
 20
7.4034978686
 30
0.0
 11
8.602481023699999
 21
7.4034978686
 31
0.0
  0
LINE
  5
4D1
330
1B
100
AcDbEntity
  8
0
  6
Continuous
 62
     0
100
AcDbLine
 10
9.072481023699999
 20
7.4034978686
 30
0.0
 11
9.102981023699999
 21
7.4034978686
 31
0.0
  0
LINE
  5
4D2
330
1B
100
AcDbEntity
  8
0
  6
Continuous
 62
     0
100
AcDbLine
 10
4.902981023699999
 20
7.404108749299999
 30
0.0
 11
4.952481023699999
 21
7.404108749299999
 31
0.0
  0
LINE
  5
4D3
330
1B
100
AcDbEntity
  8
0
  6
Continuous
 62
     0
100
AcDbLine
 10
5.422481023699999
 20
7.404108749299999
 30
0.0
 11
5.4529810237
 21
7.404108749299999
 31
0.0
  0
LINE
  5
4D4
330
1B
100
AcDbEntity
  8
0
  6
Continuous
 62
     0
100
AcDbLine
 10
8.552981023699999
 20
7.404108749299999
 30
0.0
 11
8.602481023699999
 21
7.404108749299999
 31
0.0
  0
LINE
  5
4D5
330
1B
100
AcDbEntity
  8
0
  6
Continuous
 62
     0
100
AcDbLine
 10
9.072481023699999
 20
7.404108749299999
 30
0.0
 11
9.102981023699999
 21
7.404108749299999
 31
0.0
  0
LINE
  5
4D6
330
1B
100
AcDbEntity
  8
0
  6
Continuous
 62
     0
100
AcDbLine
 10
8.6574810237
 20
7.211108749299999
 30
0.0
 11
8.682481023699999
 21
7.186108749299999
 31
0.0
  0
LINE
  5
4D7
330
1B
100
AcDbEntity
  8
0
  6
Continuous
 62
     0
100
AcDbLine
 10
9.0174810237
 20
7.077108749299999
 30
0.0
 11
8.992481023699999
 21
7.102108749299999
 31
0.0
  0
LINE
  5
4D8
330
1B
100
AcDbEntity
  8
0
  6
Continuous
 62
     0
100
AcDbLine
 10
8.552981023699999
 20
9.998608749299998
 30
0.0
 11
8.552981023699999
 21
5.868608749299999
 31
0.0
  0
LINE
  5
4D9
330
1B
100
AcDbEntity
  8
0
  6
Continuous
 62
     0
100
AcDbLine
 10
8.570481023699999
 20
7.324108749299999
 30
0.0
 11
8.570481023699999
 21
7.265723219799999
 31
0.0
  0
LINE
  5
4DA
330
1B
100
AcDbEntity
  8
0
  6
Continuous
 62
     0
100
AcDbLine
 10
8.571231023699999
 20
12.0391087493
 30
0.0
 11
8.571231023699999
 21
11.809741688
 31
0.0
  0
LINE
  5
4DB
330
1B
100
AcDbEntity
  8
0
  6
Continuous
 62
     0
100
AcDbLine
 10
8.602481023699999
 20
5.869108749299999
 30
0.0
 11
8.602481023699999
 21
10.0191087493
 31
0.0
  0
LINE
  5
4DC
330
1B
100
AcDbEntity
  8
0
  6
Continuous
 62
     0
100
AcDbLine
 10
8.627481023699999
 20
6.169108749299999
 30
0.0
 11
8.627481023699999
 21
9.7191087493
 31
0.0
  0
LINE
  5
4DD
330
1B
100
AcDbEntity
  8
0
  6
Continuous
 62
     0
100
AcDbLine
 10
8.646481023699999
 20
6.505108749299999
 30
0.0
 11
8.646481023699999
 21
6.433108749299999
 31
0.0
  0
LINE
  5
4DE
330
1B
100
AcDbEntity
  8
0
  6
Continuous
 62
     0
100
AcDbLine
 10
8.646481023699999
 20
6.405108749299999
 30
0.0
 11
8.646481023699999
 21
6.333108749299999
 31
0.0
  0
LINE
  5
4DF
330
1B
100
AcDbEntity
  8
0
  6
Continuous
 62
     0
100
AcDbLine
 10
8.646481023699999
 20
6.305108749299999
 30
0.0
 11
8.646481023699999
 21
6.233108749299999
 31
0.0
  0
LINE
  5
4E0
330
1B
100
AcDbEntity
  8
0
  6
Continuous
 62
     0
100
AcDbLine
 10
8.6574810237
 20
9.689108749299998
 30
0.0
 11
8.6574810237
 21
9.644108749299999
 31
0.0
  0
LINE
  5
4E1
330
1B
100
AcDbEntity
  8
0
  6
Continuous
 62
     0
100
AcDbLine
 10
8.6574810237
 20
9.611108749299999
 30
0.0
 11
8.6574810237
 21
9.477108749299999
 31
0.0
  0
LINE
  5
4E2
330
1B
100
AcDbEntity
  8
0
  6
Continuous
 62
     0
100
AcDbLine
 10
8.6574810237
 20
9.4111087493
 30
0.0
 11
8.6574810237
 21
9.277108749299999
 31
0.0
  0
LINE
  5
4E3
330
1B
100
AcDbEntity
  8
0
  6
Continuous
 62
     0
100
AcDbLine
 10
8.6574810237
 20
9.247108749299998
 30
0.0
 11
8.6574810237
 21
8.8411087493
 31
0.0
  0
LINE
  5
4E4
330
1B
100
AcDbEntity
  8
0
  6
Continuous
 62
     0
100
AcDbLine
 10
8.6574810237
 20
8.811108749299998
 30
0.0
 11
8.6574810237
 21
8.6771087493
 31
0.0
  0
LINE
  5
4E5
330
1B
100
AcDbEntity
  8
0
  6
Continuous
 62
     0
100
AcDbLine
 10
8.6574810237
 20
8.611108749299999
 30
0.0
 11
8.6574810237
 21
8.477108749299999
 31
0.0
  0
LINE
  5
4E6
330
1B
100
AcDbEntity
  8
0
  6
Continuous
 62
     0
100
AcDbLine
 10
8.6574810237
 20
8.447108749299999
 30
0.0
 11
8.6574810237
 21
8.041108749299999
 31
0.0
  0
LINE
  5
4E7
330
1B
100
AcDbEntity
  8
0
  6
Continuous
 62
     0
100
AcDbLine
 10
8.6574810237
 20
8.011108749299999
 30
0.0
 11
8.6574810237
 21
7.877108749299999
 31
0.0
  0
LINE
  5
4E8
330
1B
100
AcDbEntity
  8
0
  6
Continuous
 62
     0
100
AcDbLine
 10
8.6574810237
 20
7.811108749299999
 30
0.0
 11
8.6574810237
 21
7.677108749299999
 31
0.0
  0
LINE
  5
4E9
330
1B
100
AcDbEntity
  8
0
  6
Continuous
 62
     0
100
AcDbLine
 10
8.6574810237
 20
7.652108749299999
 30
0.0
 11
8.6574810237
 21
7.236108749299999
 31
0.0
  0
LINE
  5
4EA
330
1B
100
AcDbEntity
  8
0
  6
Continuous
 62
     0
100
AcDbLine
 10
8.6574810237
 20
7.211108749299999
 30
0.0
 11
8.6574810237
 21
7.077108749299999
 31
0.0
  0
LINE
  5
4EB
330
1B
100
AcDbEntity
  8
0
  6
Continuous
 62
     0
100
AcDbLine
 10
8.6574810237
 20
7.047108749299999
 30
0.0
 11
8.6574810237
 21
6.866108749299999
 31
0.0
  0
LINE
  5
4EC
330
1B
100
AcDbEntity
  8
0
  6
Continuous
 62
     0
100
AcDbLine
 10
8.6574810237
 20
6.836108749299999
 30
0.0
 11
8.6574810237
 21
6.702108749299999
 31
0.0
  0
LINE
  5
4ED
330
1B
100
AcDbEntity
  8
0
  6
Continuous
 62
     0
100
AcDbLine
 10
8.6574810237
 20
6.672108749299999
 30
0.0
 11
8.6574810237
 21
6.535108749299999
 31
0.0
  0
LINE
  5
4EE
330
1B
100
AcDbEntity
  8
0
  6
Continuous
 62
     0
100
AcDbLine
 10
8.666481023699999
 20
6.485108749299999
 30
0.0
 11
8.666481023699999
 21
6.453108749299999
 31
0.0
  0
LINE
  5
4EF
330
1B
100
AcDbEntity
  8
0
  6
Continuous
 62
     0
100
AcDbLine
 10
8.666481023699999
 20
6.385108749299999
 30
0.0
 11
8.666481023699999
 21
6.353108749299999
 31
0.0
  0
LINE
  5
4F0
330
1B
100
AcDbEntity
  8
0
  6
Continuous
 62
     0
100
AcDbLine
 10
8.666481023699999
 20
6.285108749299999
 30
0.0
 11
8.666481023699999
 21
6.253108749299999
 31
0.0
  0
LINE
  5
4F1
330
1B
100
AcDbEntity
  8
0
  6
Continuous
 62
     0
100
AcDbLine
 10
8.682481023699999
 20
9.586108749299999
 30
0.0
 11
8.682481023699999
 21
9.502108749299999
 31
0.0
  0
LINE
  5
4F2
330
1B
100
AcDbEntity
  8
0
  6
Continuous
 62
     0
100
AcDbLine
 10
8.682481023699999
 20
9.386108749299999
 30
0.0
 11
8.682481023699999
 21
9.3021087493
 31
0.0
  0
LINE
  5
4F3
330
1B
100
AcDbEntity
  8
0
  6
Continuous
 62
     0
100
AcDbLine
 10
8.682481023699999
 20
8.7861087493
 30
0.0
 11
8.682481023699999
 21
8.702108749299998
 31
0.0
  0
LINE
  5
4F4
330
1B
100
AcDbEntity
  8
0
  6
Continuous
 62
     0
100
AcDbLine
 10
8.682481023699999
 20
8.586108749299999
 30
0.0
 11
8.682481023699999
 21
8.502108749299999
 31
0.0
  0
LINE
  5
4F5
330
1B
100
AcDbEntity
  8
0
  6
Continuous
 62
     0
100
AcDbLine
 10
8.682481023699999
 20
7.986108749299999
 30
0.0
 11
8.682481023699999
 21
7.902108749299999
 31
0.0
  0
LINE
  5
4F6
330
1B
100
AcDbEntity
  8
0
  6
Continuous
 62
     0
100
AcDbLine
 10
8.682481023699999
 20
7.786108749299999
 30
0.0
 11
8.682481023699999
 21
7.702108749299999
 31
0.0
  0
LINE
  5
4F7
330
1B
100
AcDbEntity
  8
0
  6
Continuous
 62
     0
100
AcDbLine
 10
8.682481023699999
 20
7.186108749299999
 30
0.0
 11
8.682481023699999
 21
7.102108749299999
 31
0.0
  0
LINE
  5
4F8
330
1B
100
AcDbEntity
  8
0
  6
Continuous
 62
     0
100
AcDbLine
 10
8.682481023699999
 20
6.811108749299999
 30
0.0
 11
8.682481023699999
 21
6.727108749299999
 31
0.0
  0
LINE
  5
4F9
330
1B
100
AcDbEntity
  8
0
  6
Continuous
 62
     0
100
AcDbLine
 10
8.698481023699999
 20
6.253108749299999
 30
0.0
 11
8.698481023699999
 21
6.285108749299999
 31
0.0
  0
LINE
  5
4FA
330
1B
100
AcDbEntity
  8
0
  6
Continuous
 62
     0
100
AcDbLine
 10
8.698481023699999
 20
6.353108749299999
 30
0.0
 11
8.698481023699999
 21
6.385108749299999
 31
0.0
  0
LINE
  5
4FB
330
1B
100
AcDbEntity
  8
0
  6
Continuous
 62
     0
100
AcDbLine
 10
8.698481023699999
 20
6.453108749299999
 30
0.0
 11
8.698481023699999
 21
6.485108749299999
 31
0.0
  0
LINE
  5
4FC
330
1B
100
AcDbEntity
  8
0
  6
Continuous
 62
     0
100
AcDbLine
 10
8.7184810237
 20
6.233108749299999
 30
0.0
 11
8.7184810237
 21
6.305108749299999
 31
0.0
  0
LINE
  5
4FD
330
1B
100
AcDbEntity
  8
0
  6
Continuous
 62
     0
100
AcDbLine
 10
8.7184810237
 20
6.333108749299999
 30
0.0
 11
8.7184810237
 21
6.405108749299999
 31
0.0
  0
LINE
  5
4FE
330
1B
100
AcDbEntity
  8
0
  6
Continuous
 62
     0
100
AcDbLine
 10
8.7184810237
 20
6.433108749299999
 30
0.0
 11
8.7184810237
 21
6.505108749299999
 31
0.0
  0
LINE
  5
4FF
330
1B
100
AcDbEntity
  8
0
  6
Continuous
 62
     0
100
AcDbLine
 10
8.749811023699999
 20
6.505108749299999
 30
0.0
 11
8.749811023699999
 21
6.433108749299999
 31
0.0
  0
LINE
  5
500
330
1B
100
AcDbEntity
  8
0
  6
Continuous
 62
     0
100
AcDbLine
 10
8.749811023699999
 20
6.405108749299999
 30
0.0
 11
8.749811023699999
 21
6.333108749299999
 31
0.0
  0
LINE
  5
501
330
1B
100
AcDbEntity
  8
0
  6
Continuous
 62
     0
100
AcDbLine
 10
8.749811023699999
 20
6.305108749299999
 30
0.0
 11
8.749811023699999
 21
6.233108749299999
 31
0.0
  0
LINE
  5
502
330
1B
100
AcDbEntity
  8
0
  6
Continuous
 62
     0
100
AcDbLine
 10
8.7698110237
 20
6.485108749299999
 30
0.0
 11
8.7698110237
 21
6.453108749299999
 31
0.0
  0
LINE
  5
503
330
1B
100
AcDbEntity
  8
0
  6
Continuous
 62
     0
100
AcDbLine
 10
8.7698110237
 20
6.385108749299999
 30
0.0
 11
8.7698110237
 21
6.353108749299999
 31
0.0
  0
LINE
  5
504
330
1B
100
AcDbEntity
  8
0
  6
Continuous
 62
     0
100
AcDbLine
 10
8.7698110237
 20
6.285108749299999
 30
0.0
 11
8.7698110237
 21
6.253108749299999
 31
0.0
  0
LINE
  5
505
330
1B
100
AcDbEntity
  8
0
  6
Continuous
 62
     0
100
AcDbLine
 10
8.8018110237
 20
6.253108749299999
 30
0.0
 11
8.8018110237
 21
6.285108749299999
 31
0.0
  0
LINE
  5
506
330
1B
100
AcDbEntity
  8
0
  6
Continuous
 62
     0
100
AcDbLine
 10
8.8018110237
 20
6.353108749299999
 30
0.0
 11
8.8018110237
 21
6.385108749299999
 31
0.0
  0
LINE
  5
507
330
1B
100
AcDbEntity
  8
0
  6
Continuous
 62
     0
100
AcDbLine
 10
8.8018110237
 20
6.453108749299999
 30
0.0
 11
8.8018110237
 21
6.485108749299999
 31
0.0
  0
LINE
  5
508
330
1B
100
AcDbEntity
  8
0
  6
Continuous
 62
     0
100
AcDbLine
 10
8.810399955499999
 20
5.544128234999999
 30
0.0
 11
8.810399955499999
 21
5.534128234999999
 31
0.0
  0
LINE
  5
509
330
1B
100
AcDbEntity
  8
0
  6
Continuous
 62
     0
100
AcDbLine
 10
8.815380928899999
 20
5.544128234999999
 30
0.0
 11
8.815380928899999
 21
5.534128234999999
 31
0.0
  0
LINE
  5
50A
330
1B
100
AcDbEntity
  8
0
  6
Continuous
 62
     0
100
AcDbLine
 10
8.818481157899999
 20
5.544128234999999
 30
0.0
 11
8.818481157899999
 21
5.534128234999999
 31
0.0
  0
LINE
  5
50B
330
1B
100
AcDbEntity
  8
0
  6
Continuous
 62
     0
100
AcDbLine
 10
8.8218110237
 20
6.233108749299999
 30
0.0
 11
8.8218110237
 21
6.305108749299999
 31
0.0
  0
LINE
  5
50C
330
1B
100
AcDbEntity
  8
0
  6
Continuous
 62
     0
100
AcDbLine
 10
8.8218110237
 20
6.333108749299999
 30
0.0
 11
8.8218110237
 21
6.405108749299999
 31
0.0
  0
LINE
  5
50D
330
1B
100
AcDbEntity
  8
0
  6
Continuous
 62
     0
100
AcDbLine
 10
8.8218110237
 20
6.433108749299999
 30
0.0
 11
8.8218110237
 21
6.505108749299999
 31
0.0
  0
LINE
  5
50E
330
1B
100
AcDbEntity
  8
0
  6
Continuous
 62
     0
100
AcDbLine
 10
8.824929842599999
 20
10.5208016627
 30
0.0
 11
8.824929842599999
 21
10.5574158359
 31
0.0
  0
LINE
  5
50F
330
1B
100
AcDbEntity
  8
0
  6
Continuous
 62
     0
100
AcDbLine
 10
8.8249816113
 20
5.5195465791
 30
0.0
 11
8.8249816113
 21
5.527627781499999
 31
0.0
  0
LINE
  5
510
330
1B
100
AcDbEntity
  8
0
  6
Continuous
 62
     0
100
AcDbLine
 10
8.8249816113
 20
5.550628688499999
 30
0.0
 11
8.8249816113
 21
5.5587098909
 31
0.0
  0
LINE
  5
511
330
1B
100
AcDbEntity
  8
0
  6
Continuous
 62
     0
100
AcDbLine
 10
8.853141023699999
 20
6.505108749299999
 30
0.0
 11
8.853141023699999
 21
6.433108749299999
 31
0.0
  0
LINE
  5
512
330
1B
100
AcDbEntity
  8
0
  6
Continuous
 62
     0
100
AcDbLine
 10
8.853141023699999
 20
6.405108749299999
 30
0.0
 11
8.853141023699999
 21
6.333108749299999
 31
0.0
  0
LINE
  5
513
330
1B
100
AcDbEntity
  8
0
  6
Continuous
 62
     0
100
AcDbLine
 10
8.853141023699999
 20
6.305108749299999
 30
0.0
 11
8.853141023699999
 21
6.233108749299999
 31
0.0
  0
LINE
  5
514
330
1B
100
AcDbEntity
  8
0
  6
Continuous
 62
     0
100
AcDbLine
 10
8.8731410237
 20
6.485108749299999
 30
0.0
 11
8.8731410237
 21
6.453108749299999
 31
0.0
  0
LINE
  5
515
330
1B
100
AcDbEntity
  8
0
  6
Continuous
 62
     0
100
AcDbLine
 10
8.8731410237
 20
6.385108749299999
 30
0.0
 11
8.8731410237
 21
6.353108749299999
 31
0.0
  0
LINE
  5
516
330
1B
100
AcDbEntity
  8
0
  6
Continuous
 62
     0
100
AcDbLine
 10
8.8731410237
 20
6.285108749299999
 30
0.0
 11
8.8731410237
 21
6.253108749299999
 31
0.0
  0
LINE
  5
517
330
1B
100
AcDbEntity
  8
0
  6
Continuous
 62
     0
100
AcDbLine
 10
8.883731023699999
 20
11.809741688
 30
0.0
 11
8.883731023699999
 21
12.0391087493
 31
0.0
  0
LINE
  5
518
330
1B
100
AcDbEntity
  8
0
  6
Continuous
 62
     0
100
AcDbLine
 10
8.889981611299999
 20
5.5587098909
 30
0.0
 11
8.889981611299999
 21
5.550628688499999
 31
0.0
  0
LINE
  5
519
330
1B
100
AcDbEntity
  8
0
  6
Continuous
 62
     0
100
AcDbLine
 10
8.889981611299999
 20
5.5195465791
 30
0.0
 11
8.889981611299999
 21
5.527627781499999
 31
0.0
  0
LINE
  5
51A
330
1B
100
AcDbEntity
  8
0
  6
Continuous
 62
     0
100
AcDbLine
 10
8.8953999555
 20
5.629128234999999
 30
0.0
 11
8.8953999555
 21
5.564128235
 31
0.0
  0
LINE
  5
51B
330
1B
100
AcDbEntity
  8
0
  6
Continuous
 62
     0
100
AcDbLine
 10
8.8953999555
 20
5.514128235
 30
0.0
 11
8.8953999555
 21
5.449128234999999
 31
0.0
  0
LINE
  5
51C
330
1B
100
AcDbEntity
  8
0
  6
Continuous
 62
     0
100
AcDbLine
 10
8.897173937099999
 20
10.4485575682
 30
0.0
 11
8.897173937099999
 21
10.5011166233
 31
0.0
  0
LINE
  5
51D
330
1B
100
AcDbEntity
  8
0
  6
Continuous
 62
     0
100
AcDbLine
 10
8.897173937099999
 20
10.5771008753
 30
0.0
 11
8.897173937099999
 21
10.6296599304
 31
0.0
  0
LINE
  5
51E
330
1B
100
AcDbEntity
  8
0
  6
Continuous
 62
     0
100
AcDbLine
 10
8.9003809289
 20
5.629128234999999
 30
0.0
 11
8.9003809289
 21
5.564128235
 31
0.0
  0
LINE
  5
51F
330
1B
100
AcDbEntity
  8
0
  6
Continuous
 62
     0
100
AcDbLine
 10
8.9003809289
 20
5.514128235
 30
0.0
 11
8.9003809289
 21
5.449128234999999
 31
0.0
  0
LINE
  5
520
330
1B
100
AcDbEntity
  8
0
  6
Continuous
 62
     0
100
AcDbLine
 10
8.903481157899999
 20
5.629128234999999
 30
0.0
 11
8.903481157899999
 21
5.564128235
 31
0.0
  0
LINE
  5
521
330
1B
100
AcDbEntity
  8
0
  6
Continuous
 62
     0
100
AcDbLine
 10
8.903481157899999
 20
5.514128235
 30
0.0
 11
8.903481157899999
 21
5.449128234999999
 31
0.0
  0
LINE
  5
522
330
1B
100
AcDbEntity
  8
0
  6
Continuous
 62
     0
100
AcDbLine
 10
8.9051410237
 20
6.253108749299999
 30
0.0
 11
8.9051410237
 21
6.285108749299999
 31
0.0
  0
LINE
  5
523
330
1B
100
AcDbEntity
  8
0
  6
Continuous
 62
     0
100
AcDbLine
 10
8.9051410237
 20
6.353108749299999
 30
0.0
 11
8.9051410237
 21
6.385108749299999
 31
0.0
  0
LINE
  5
524
330
1B
100
AcDbEntity
  8
0
  6
Continuous
 62
     0
100
AcDbLine
 10
8.9051410237
 20
6.453108749299999
 30
0.0
 11
8.9051410237
 21
6.485108749299999
 31
0.0
  0
LINE
  5
525
330
1B
100
AcDbEntity
  8
0
  6
Continuous
 62
     0
100
AcDbLine
 10
8.909981611299999
 20
5.4345465791
 30
0.0
 11
8.909981611299999
 21
5.442627781499999
 31
0.0
  0
LINE
  5
526
330
1B
100
AcDbEntity
  8
0
  6
Continuous
 62
     0
100
AcDbLine
 10
8.909981611299999
 20
5.6356286885
 30
0.0
 11
8.909981611299999
 21
5.6437098909
 31
0.0
  0
LINE
  5
527
330
1B
100
AcDbEntity
  8
0
  6
Continuous
 62
     0
100
AcDbLine
 10
8.9199816113
 20
5.6437098909
 30
0.0
 11
8.9199816113
 21
5.6356286885
 31
0.0
  0
LINE
  5
528
330
1B
100
AcDbEntity
  8
0
  6
Continuous
 62
     0
100
AcDbLine
 10
8.9199816113
 20
5.4345465791
 30
0.0
 11
8.9199816113
 21
5.442627781499999
 31
0.0
  0
LINE
  5
529
330
1B
100
AcDbEntity
  8
0
  6
Continuous
 62
     0
100
AcDbLine
 10
8.9251410237
 20
6.233108749299999
 30
0.0
 11
8.9251410237
 21
6.305108749299999
 31
0.0
  0
LINE
  5
52A
330
1B
100
AcDbEntity
  8
0
  6
Continuous
 62
     0
100
AcDbLine
 10
8.9251410237
 20
6.333108749299999
 30
0.0
 11
8.9251410237
 21
6.405108749299999
 31
0.0
  0
LINE
  5
52B
330
1B
100
AcDbEntity
  8
0
  6
Continuous
 62
     0
100
AcDbLine
 10
8.9251410237
 20
6.433108749299999
 30
0.0
 11
8.9251410237
 21
6.505108749299999
 31
0.0
  0
LINE
  5
52C
330
1B
100
AcDbEntity
  8
0
  6
Continuous
 62
     0
100
AcDbLine
 10
8.9264820648
 20
5.449128234999999
 30
0.0
 11
8.9264820648
 21
5.514128235
 31
0.0
  0
LINE
  5
52D
330
1B
100
AcDbEntity
  8
0
  6
Continuous
 62
     0
100
AcDbLine
 10
8.9264820648
 20
5.564128235
 30
0.0
 11
8.9264820648
 21
5.629128234999999
 31
0.0
  0
LINE
  5
52E
330
1B
100
AcDbEntity
  8
0
  6
Continuous
 62
     0
100
AcDbLine
 10
8.929582293699999
 20
5.449128234999999
 30
0.0
 11
8.929582293699999
 21
5.514128235
 31
0.0
  0
LINE
  5
52F
330
1B
100
AcDbEntity
  8
0
  6
Continuous
 62
     0
100
AcDbLine
 10
8.929582293699999
 20
5.564128235
 30
0.0
 11
8.929582293699999
 21
5.629128234999999
 31
0.0
  0
LINE
  5
530
330
1B
100
AcDbEntity
  8
0
  6
Continuous
 62
     0
100
AcDbLine
 10
8.9337881103
 20
10.6296599304
 30
0.0
 11
8.9337881103
 21
10.5771008753
 31
0.0
  0
LINE
  5
531
330
1B
100
AcDbEntity
  8
0
  6
Continuous
 62
     0
100
AcDbLine
 10
8.9337881103
 20
10.5011166233
 30
0.0
 11
8.9337881103
 21
10.4485575682
 31
0.0
  0
LINE
  5
532
330
1B
100
AcDbEntity
  8
0
  6
Continuous
 62
     0
100
AcDbLine
 10
8.934563267199999
 20
5.449128234999999
 30
0.0
 11
8.934563267199999
 21
5.514128235
 31
0.0
  0
LINE
  5
533
330
1B
100
AcDbEntity
  8
0
  6
Continuous
 62
     0
100
AcDbLine
 10
8.934563267199999
 20
5.564128235
 30
0.0
 11
8.934563267199999
 21
5.629128234999999
 31
0.0
  0
LINE
  5
534
330
1B
100
AcDbEntity
  8
0
  6
Continuous
 62
     0
100
AcDbLine
 10
8.9399816113
 20
5.5195465791
 30
0.0
 11
8.9399816113
 21
5.527627781499999
 31
0.0
  0
LINE
  5
535
330
1B
100
AcDbEntity
  8
0
  6
Continuous
 62
     0
100
AcDbLine
 10
8.9399816113
 20
5.550628688499999
 30
0.0
 11
8.9399816113
 21
5.5587098909
 31
0.0
  0
LINE
  5
536
330
1B
100
AcDbEntity
  8
0
  6
Continuous
 62
     0
100
AcDbLine
 10
8.9564710237
 20
6.505108749299999
 30
0.0
 11
8.9564710237
 21
6.433108749299999
 31
0.0
  0
LINE
  5
537
330
1B
100
AcDbEntity
  8
0
  6
Continuous
 62
     0
100
AcDbLine
 10
8.9564710237
 20
6.405108749299999
 30
0.0
 11
8.9564710237
 21
6.333108749299999
 31
0.0
  0
LINE
  5
538
330
1B
100
AcDbEntity
  8
0
  6
Continuous
 62
     0
100
AcDbLine
 10
8.9564710237
 20
6.305108749299999
 30
0.0
 11
8.9564710237
 21
6.233108749299999
 31
0.0
  0
LINE
  5
539
330
1B
100
AcDbEntity
  8
0
  6
Continuous
 62
     0
100
AcDbLine
 10
8.9764710237
 20
6.485108749299999
 30
0.0
 11
8.9764710237
 21
6.453108749299999
 31
0.0
  0
LINE
  5
53A
330
1B
100
AcDbEntity
  8
0
  6
Continuous
 62
     0
100
AcDbLine
 10
8.9764710237
 20
6.385108749299999
 30
0.0
 11
8.9764710237
 21
6.353108749299999
 31
0.0
  0
LINE
  5
53B
330
1B
100
AcDbEntity
  8
0
  6
Continuous
 62
     0
100
AcDbLine
 10
8.9764710237
 20
6.285108749299999
 30
0.0
 11
8.9764710237
 21
6.253108749299999
 31
0.0
  0
LINE
  5
53C
330
1B
100
AcDbEntity
  8
0
  6
Continuous
 62
     0
100
AcDbLine
 10
8.992481023699999
 20
6.727108749299999
 30
0.0
 11
8.992481023699999
 21
6.811108749299999
 31
0.0
  0
LINE
  5
53D
330
1B
100
AcDbEntity
  8
0
  6
Continuous
 62
     0
100
AcDbLine
 10
8.992481023699999
 20
7.102108749299999
 30
0.0
 11
8.992481023699999
 21
7.186108749299999
 31
0.0
  0
LINE
  5
53E
330
1B
100
AcDbEntity
  8
0
  6
Continuous
 62
     0
100
AcDbLine
 10
8.992481023699999
 20
7.702108749299999
 30
0.0
 11
8.992481023699999
 21
7.786108749299999
 31
0.0
  0
LINE
  5
53F
330
1B
100
AcDbEntity
  8
0
  6
Continuous
 62
     0
100
AcDbLine
 10
8.992481023699999
 20
7.902108749299999
 30
0.0
 11
8.992481023699999
 21
7.986108749299999
 31
0.0
  0
LINE
  5
540
330
1B
100
AcDbEntity
  8
0
  6
Continuous
 62
     0
100
AcDbLine
 10
8.992481023699999
 20
8.502108749299999
 30
0.0
 11
8.992481023699999
 21
8.586108749299999
 31
0.0
  0
LINE
  5
541
330
1B
100
AcDbEntity
  8
0
  6
Continuous
 62
     0
100
AcDbLine
 10
8.992481023699999
 20
8.702108749299998
 30
0.0
 11
8.992481023699999
 21
8.7861087493
 31
0.0
  0
LINE
  5
542
330
1B
100
AcDbEntity
  8
0
  6
Continuous
 62
     0
100
AcDbLine
 10
8.992481023699999
 20
9.3021087493
 30
0.0
 11
8.992481023699999
 21
9.386108749299999
 31
0.0
  0
LINE
  5
543
330
1B
100
AcDbEntity
  8
0
  6
Continuous
 62
     0
100
AcDbLine
 10
8.992481023699999
 20
9.502108749299999
 30
0.0
 11
8.992481023699999
 21
9.586108749299999
 31
0.0
  0
LINE
  5
544
330
1B
100
AcDbEntity
  8
0
  6
Continuous
 62
     0
100
AcDbLine
 10
8.6574810237
 20
8.6771087493
 30
0.0
 11
8.682481023699999
 21
8.702108749299998
 31
0.0
  0
LINE
  5
545
330
1B
100
AcDbEntity
  8
0
  6
Continuous
 62
     0
100
AcDbLine
 10
8.6574810237
 20
8.477108749299999
 30
0.0
 11
8.682481023699999
 21
8.502108749299999
 31
0.0
  0
LINE
  5
546
330
1B
100
AcDbEntity
  8
0
  6
Continuous
 62
     0
100
AcDbLine
 10
9.0174810237
 20
8.811108749299998
 30
0.0
 11
8.992481023699999
 21
8.7861087493
 31
0.0
  0
LINE
  5
547
330
1B
100
AcDbEntity
  8
0
  6
Continuous
 62
     0
100
AcDbLine
 10
9.0174810237
 20
8.611108749299999
 30
0.0
 11
8.992481023699999
 21
8.586108749299999
 31
0.0
  0
LINE
  5
548
330
1B
100
AcDbEntity
  8
0
  6
Continuous
 62
     0
100
AcDbLine
 10
9.0174810237
 20
7.652108749299999
 30
0.0
 11
8.6574810237
 21
7.652108749299999
 31
0.0
  0
LINE
  5
549
330
1B
100
AcDbEntity
  8
0
  6
Continuous
 62
     0
100
AcDbLine
 10
5.367481023699999
 20
7.652108749299999
 30
0.0
 11
5.0074810237
 21
7.652108749299999
 31
0.0
  0
LINE
  5
54A
330
1B
100
AcDbEntity
  8
0
  6
Continuous
 62
     0
100
AcDbLine
 10
5.0074810237
 20
7.677108749299999
 30
0.0
 11
5.367481023699999
 21
7.677108749299999
 31
0.0
  0
LINE
  5
54B
330
1B
100
AcDbEntity
  8
0
  6
Continuous
 62
     0
100
AcDbLine
 10
8.6574810237
 20
7.677108749299999
 30
0.0
 11
9.0174810237
 21
7.677108749299999
 31
0.0
  0
LINE
  5
54C
330
1B
100
AcDbEntity
  8
0
  6
Continuous
 62
     0
100
AcDbLine
 10
5.032481023699999
 20
7.702108749299999
 30
0.0
 11
5.3424810237
 21
7.702108749299999
 31
0.0
  0
LINE
  5
54D
330
1B
100
AcDbEntity
  8
0
  6
Continuous
 62
     0
100
AcDbLine
 10
8.682481023699999
 20
7.702108749299999
 30
0.0
 11
8.992481023699999
 21
7.702108749299999
 31
0.0
  0
LINE
  5
54E
330
1B
100
AcDbEntity
  8
0
  6
Continuous
 62
     0
100
AcDbLine
 10
5.032481023699999
 20
7.705608749299999
 30
0.0
 11
5.3424810237
 21
7.705608749299999
 31
0.0
  0
LINE
  5
54F
330
1B
100
AcDbEntity
  8
0
  6
Continuous
 62
     0
100
AcDbLine
 10
8.682481023699999
 20
7.705608749299999
 30
0.0
 11
8.992481023699999
 21
7.705608749299999
 31
0.0
  0
LINE
  5
550
330
1B
100
AcDbEntity
  8
0
  6
Continuous
 62
     0
100
AcDbLine
 10
8.992481023699999
 20
7.782608749299999
 30
0.0
 11
8.682481023699999
 21
7.782608749299999
 31
0.0
  0
LINE
  5
551
330
1B
100
AcDbEntity
  8
0
  6
Continuous
 62
     0
100
AcDbLine
 10
5.3424810237
 20
7.782608749299999
 30
0.0
 11
5.032481023699999
 21
7.782608749299999
 31
0.0
  0
LINE
  5
552
330
1B
100
AcDbEntity
  8
0
  6
Continuous
 62
     0
100
AcDbLine
 10
8.992481023699999
 20
7.786108749299999
 30
0.0
 11
8.682481023699999
 21
7.786108749299999
 31
0.0
  0
LINE
  5
553
330
1B
100
AcDbEntity
  8
0
  6
Continuous
 62
     0
100
AcDbLine
 10
5.3424810237
 20
7.786108749299999
 30
0.0
 11
5.032481023699999
 21
7.786108749299999
 31
0.0
  0
LINE
  5
554
330
1B
100
AcDbEntity
  8
0
  6
Continuous
 62
     0
100
AcDbLine
 10
9.0174810237
 20
7.811108749299999
 30
0.0
 11
8.6574810237
 21
7.811108749299999
 31
0.0
  0
LINE
  5
555
330
1B
100
AcDbEntity
  8
0
  6
Continuous
 62
     0
100
AcDbLine
 10
5.367481023699999
 20
7.811108749299999
 30
0.0
 11
5.0074810237
 21
7.811108749299999
 31
0.0
  0
LINE
  5
556
330
1B
100
AcDbEntity
  8
0
  6
Continuous
 62
     0
100
AcDbLine
 10
5.0074810237
 20
7.877108749299999
 30
0.0
 11
5.367481023699999
 21
7.877108749299999
 31
0.0
  0
LINE
  5
557
330
1B
100
AcDbEntity
  8
0
  6
Continuous
 62
     0
100
AcDbLine
 10
8.6574810237
 20
7.877108749299999
 30
0.0
 11
9.0174810237
 21
7.877108749299999
 31
0.0
  0
LINE
  5
558
330
1B
100
AcDbEntity
  8
0
  6
Continuous
 62
     0
100
AcDbLine
 10
8.6574810237
 20
7.811108749299999
 30
0.0
 11
8.682481023699999
 21
7.786108749299999
 31
0.0
  0
LINE
  5
559
330
1B
100
AcDbEntity
  8
0
  6
Continuous
 62
     0
100
AcDbLine
 10
8.6574810237
 20
8.011108749299999
 30
0.0
 11
8.682481023699999
 21
7.986108749299999
 31
0.0
  0
LINE
  5
55A
330
1B
100
AcDbEntity
  8
0
  6
Continuous
 62
     0
100
AcDbLine
 10
9.0174810237
 20
7.677108749299999
 30
0.0
 11
8.992481023699999
 21
7.702108749299999
 31
0.0
  0
LINE
  5
55B
330
1B
100
AcDbEntity
  8
0
  6
Continuous
 62
     0
100
AcDbLine
 10
9.0174810237
 20
7.877108749299999
 30
0.0
 11
8.992481023699999
 21
7.902108749299999
 31
0.0
  0
LINE
  5
55C
330
1B
100
AcDbEntity
  8
0
  6
Continuous
 62
     0
100
AcDbLine
 10
4.3654810237
 20
12.6391087493
 30
0.0
 11
4.367234405599999
 21
12.6373553673
 31
0.0
  0
LINE
  5
55D
330
1B
100
AcDbEntity
  8
0
  6
Continuous
 62
     0
100
AcDbLine
 10
9.305907841399999
 20
11.0396556377
 30
0.0
 11
9.301165714099999
 21
11.3356193172
 31
0.0
  0
LINE
  5
55E
330
1B
100
AcDbEntity
  8
0
  6
Continuous
 62
     0
100
AcDbLine
 10
9.004981611299999
 20
5.5587098909
 30
0.0
 11
9.004981611299999
 21
5.550628688499999
 31
0.0
  0
LINE
  5
55F
330
1B
100
AcDbEntity
  8
0
  6
Continuous
 62
     0
100
AcDbLine
 10
9.004981611299999
 20
5.5195465791
 30
0.0
 11
9.004981611299999
 21
5.527627781499999
 31
0.0
  0
LINE
  5
560
330
1B
100
AcDbEntity
  8
0
  6
Continuous
 62
     0
100
AcDbLine
 10
9.0060322048
 20
10.5574158359
 30
0.0
 11
9.0060322048
 21
10.5208016627
 31
0.0
  0
LINE
  5
561
330
1B
100
AcDbEntity
  8
0
  6
Continuous
 62
     0
100
AcDbLine
 10
9.0084710237
 20
6.253108749299999
 30
0.0
 11
9.0084710237
 21
6.285108749299999
 31
0.0
  0
LINE
  5
562
330
1B
100
AcDbEntity
  8
0
  6
Continuous
 62
     0
100
AcDbLine
 10
9.0084710237
 20
6.353108749299999
 30
0.0
 11
9.0084710237
 21
6.385108749299999
 31
0.0
  0
LINE
  5
563
330
1B
100
AcDbEntity
  8
0
  6
Continuous
 62
     0
100
AcDbLine
 10
9.0084710237
 20
6.453108749299999
 30
0.0
 11
9.0084710237
 21
6.485108749299999
 31
0.0
  0
LINE
  5
564
330
1B
100
AcDbEntity
  8
0
  6
Continuous
 62
     0
100
AcDbLine
 10
9.0114820648
 20
5.534128234999999
 30
0.0
 11
9.0114820648
 21
5.544128234999999
 31
0.0
  0
LINE
  5
565
330
1B
100
AcDbEntity
  8
0
  6
Continuous
 62
     0
100
AcDbLine
 10
9.0145822937
 20
5.534128234999999
 30
0.0
 11
9.0145822937
 21
5.544128234999999
 31
0.0
  0
LINE
  5
566
330
1B
100
AcDbEntity
  8
0
  6
Continuous
 62
     0
100
AcDbLine
 10
9.0174810237
 20
6.535108749299999
 30
0.0
 11
9.0174810237
 21
6.672108749299999
 31
0.0
  0
LINE
  5
567
330
1B
100
AcDbEntity
  8
0
  6
Continuous
 62
     0
100
AcDbLine
 10
9.0174810237
 20
6.702108749299999
 30
0.0
 11
9.0174810237
 21
6.836108749299999
 31
0.0
  0
LINE
  5
568
330
1B
100
AcDbEntity
  8
0
  6
Continuous
 62
     0
100
AcDbLine
 10
9.0174810237
 20
6.866108749299999
 30
0.0
 11
9.0174810237
 21
7.047108749299999
 31
0.0
  0
LINE
  5
569
330
1B
100
AcDbEntity
  8
0
  6
Continuous
 62
     0
100
AcDbLine
 10
9.0174810237
 20
7.077108749299999
 30
0.0
 11
9.0174810237
 21
7.211108749299999
 31
0.0
  0
LINE
  5
56A
330
1B
100
AcDbEntity
  8
0
  6
Continuous
 62
     0
100
AcDbLine
 10
9.0174810237
 20
7.236108749299999
 30
0.0
 11
9.0174810237
 21
7.652108749299999
 31
0.0
  0
LINE
  5
56B
330
1B
100
AcDbEntity
  8
0
  6
Continuous
 62
     0
100
AcDbLine
 10
9.0174810237
 20
7.677108749299999
 30
0.0
 11
9.0174810237
 21
7.811108749299999
 31
0.0
  0
LINE
  5
56C
330
1B
100
AcDbEntity
  8
0
  6
Continuous
 62
     0
100
AcDbLine
 10
9.0174810237
 20
7.877108749299999
 30
0.0
 11
9.0174810237
 21
8.011108749299999
 31
0.0
  0
LINE
  5
56D
330
1B
100
AcDbEntity
  8
0
  6
Continuous
 62
     0
100
AcDbLine
 10
9.0174810237
 20
8.041108749299999
 30
0.0
 11
9.0174810237
 21
8.447108749299999
 31
0.0
  0
LINE
  5
56E
330
1B
100
AcDbEntity
  8
0
  6
Continuous
 62
     0
100
AcDbLine
 10
9.0174810237
 20
8.477108749299999
 30
0.0
 11
9.0174810237
 21
8.611108749299999
 31
0.0
  0
LINE
  5
56F
330
1B
100
AcDbEntity
  8
0
  6
Continuous
 62
     0
100
AcDbLine
 10
9.0174810237
 20
8.6771087493
 30
0.0
 11
9.0174810237
 21
8.811108749299998
 31
0.0
  0
LINE
  5
570
330
1B
100
AcDbEntity
  8
0
  6
Continuous
 62
     0
100
AcDbLine
 10
9.0174810237
 20
8.8411087493
 30
0.0
 11
9.0174810237
 21
9.247108749299998
 31
0.0
  0
LINE
  5
571
330
1B
100
AcDbEntity
  8
0
  6
Continuous
 62
     0
100
AcDbLine
 10
9.0174810237
 20
9.277108749299999
 30
0.0
 11
9.0174810237
 21
9.4111087493
 31
0.0
  0
LINE
  5
572
330
1B
100
AcDbEntity
  8
0
  6
Continuous
 62
     0
100
AcDbLine
 10
9.0174810237
 20
9.477108749299999
 30
0.0
 11
9.0174810237
 21
9.611108749299999
 31
0.0
  0
LINE
  5
573
330
1B
100
AcDbEntity
  8
0
  6
Continuous
 62
     0
100
AcDbLine
 10
9.0174810237
 20
9.644108749299999
 30
0.0
 11
9.0174810237
 21
9.689108749299998
 31
0.0
  0
LINE
  5
574
330
1B
100
AcDbEntity
  8
0
  6
Continuous
 62
     0
100
AcDbLine
 10
9.0195632672
 20
5.534128234999999
 30
0.0
 11
9.0195632672
 21
5.544128234999999
 31
0.0
  0
LINE
  5
575
330
1B
100
AcDbEntity
  8
0
  6
Continuous
 62
     0
100
AcDbLine
 10
9.028471023699999
 20
6.233108749299999
 30
0.0
 11
9.028471023699999
 21
6.305108749299999
 31
0.0
  0
LINE
  5
576
330
1B
100
AcDbEntity
  8
0
  6
Continuous
 62
     0
100
AcDbLine
 10
9.028471023699999
 20
6.333108749299999
 30
0.0
 11
9.028471023699999
 21
6.405108749299999
 31
0.0
  0
LINE
  5
577
330
1B
100
AcDbEntity
  8
0
  6
Continuous
 62
     0
100
AcDbLine
 10
9.028471023699999
 20
6.433108749299999
 30
0.0
 11
9.028471023699999
 21
6.505108749299999
 31
0.0
  0
LINE
  5
578
330
1B
100
AcDbEntity
  8
0
  6
Continuous
 62
     0
100
AcDbLine
 10
9.047481023699999
 20
9.7191087493
 30
0.0
 11
9.047481023699999
 21
6.169108749299999
 31
0.0
  0
LINE
  5
579
330
1B
100
AcDbEntity
  8
0
  6
Continuous
 62
     0
100
AcDbLine
 10
9.072481023699999
 20
10.0191087493
 30
0.0
 11
9.072481023699999
 21
5.869108749299999
 31
0.0
  0
LINE
  5
57A
330
1B
100
AcDbEntity
  8
0
  6
Continuous
 62
     0
100
AcDbLine
 10
9.102981023699999
 20
5.868608749299999
 30
0.0
 11
9.102981023699999
 21
9.998608749299998
 31
0.0
  0
LINE
  5
57B
330
1B
100
AcDbEntity
  8
0
  6
Continuous
 62
     0
100
AcDbLine
 10
9.127481023699999
 20
11.5391087493
 30
0.0
 11
9.127481023699999
 21
12.0391087493
 31
0.0
  0
LINE
  5
57C
330
1B
100
AcDbEntity
  8
0
  6
Continuous
 62
     0
100
AcDbLine
 10
9.2867143475
 20
4.1266126809
 30
0.0
 11
9.2867143475
 21
4.314108749299999
 31
0.0
  0
LINE
  5
57D
330
1B
100
AcDbEntity
  8
0
  6
Continuous
 62
     0
100
AcDbLine
 10
9.2867143475
 20
4.364108749299999
 30
0.0
 11
9.2867143475
 21
4.551604817699999
 31
0.0
  0
LINE
  5
57E
330
1B
100
AcDbEntity
  8
0
  6
Continuous
 62
     0
100
AcDbLine
 10
9.300020728799999
 20
11.4818051696
 30
0.0
 11
9.300020728799999
 21
12.1818051696
 31
0.0
  0
LINE
  5
57F
330
1B
100
AcDbEntity
  8
0
  6
Continuous
 62
     0
100
AcDbLine
 10
9.309192090199999
 20
11.0391087493
 30
0.0
 11
9.309192090199999
 21
11.0141087493
 31
0.0
  0
LINE
  5
580
330
1B
100
AcDbEntity
  8
0
  6
Continuous
 62
     0
100
AcDbLine
 10
9.3154810237
 20
11.0141087493
 30
0.0
 11
9.3154810237
 21
12.6384105999
 31
0.0
  0
LINE
  5
581
330
1B
100
AcDbEntity
  8
0
  6
Continuous
 62
     0
100
AcDbLine
 10
9.3274810237
 20
3.959108749299999
 30
0.0
 11
9.3274810237
 21
4.126608749299999
 31
0.0
  0
LINE
  5
582
330
1B
100
AcDbEntity
  8
0
  6
Continuous
 62
     0
100
AcDbLine
 10
9.386714347499999
 20
4.364108749299999
 30
0.0
 11
9.386714347499999
 21
4.314108749299999
 31
0.0
  0
LINE
  5
583
330
1B
100
AcDbEntity
  8
0
  6
Continuous
 62
     0
100
AcDbLine
 10
9.414985541
 20
5.1045327561
 30
0.0
 11
9.4149799837
 21
5.719132756
 31
0.0
  0
LINE
  5
584
330
1B
100
AcDbEntity
  8
0
  6
Continuous
 62
     0
100
AcDbLine
 10
9.3030082148
 20
12.4136566336
 30
0.0
 11
9.309143996999999
 21
12.6373553673
 31
0.0
  0
LINE
  5
585
330
1B
100
AcDbEntity
  8
0
  6
Continuous
 62
     0
100
AcDbLine
 10
8.6574810237
 20
7.877108749299999
 30
0.0
 11
8.682481023699999
 21
7.902108749299999
 31
0.0
  0
LINE
  5
586
330
1B
100
AcDbEntity
  8
0
  6
Continuous
 62
     0
100
AcDbLine
 10
8.6574810237
 20
7.677108749299999
 30
0.0
 11
8.682481023699999
 21
7.702108749299999
 31
0.0
  0
LINE
  5
587
330
1B
100
AcDbEntity
  8
0
  6
Continuous
 62
     0
100
AcDbLine
 10
9.0174810237
 20
8.011108749299999
 30
0.0
 11
8.992481023699999
 21
7.986108749299999
 31
0.0
  0
LINE
  5
588
330
1B
100
AcDbEntity
  8
0
  6
Continuous
 62
     0
100
AcDbLine
 10
5.032481023699999
 20
7.902108749299999
 30
0.0
 11
5.3424810237
 21
7.902108749299999
 31
0.0
  0
LINE
  5
589
330
1B
100
AcDbEntity
  8
0
  6
Continuous
 62
     0
100
AcDbLine
 10
8.682481023699999
 20
7.902108749299999
 30
0.0
 11
8.992481023699999
 21
7.902108749299999
 31
0.0
  0
LINE
  5
58A
330
1B
100
AcDbEntity
  8
0
  6
Continuous
 62
     0
100
AcDbLine
 10
5.032481023699999
 20
7.905608749299999
 30
0.0
 11
5.3424810237
 21
7.905608749299999
 31
0.0
  0
LINE
  5
58B
330
1B
100
AcDbEntity
  8
0
  6
Continuous
 62
     0
100
AcDbLine
 10
8.682481023699999
 20
7.905608749299999
 30
0.0
 11
8.992481023699999
 21
7.905608749299999
 31
0.0
  0
LINE
  5
58C
330
1B
100
AcDbEntity
  8
0
  6
Continuous
 62
     0
100
AcDbLine
 10
8.992481023699999
 20
7.982608749299999
 30
0.0
 11
8.682481023699999
 21
7.982608749299999
 31
0.0
  0
LINE
  5
58D
330
1B
100
AcDbEntity
  8
0
  6
Continuous
 62
     0
100
AcDbLine
 10
5.3424810237
 20
7.982608749299999
 30
0.0
 11
5.032481023699999
 21
7.982608749299999
 31
0.0
  0
LINE
  5
58E
330
1B
100
AcDbEntity
  8
0
  6
Continuous
 62
     0
100
AcDbLine
 10
8.992481023699999
 20
7.986108749299999
 30
0.0
 11
8.682481023699999
 21
7.986108749299999
 31
0.0
  0
LINE
  5
58F
330
1B
100
AcDbEntity
  8
0
  6
Continuous
 62
     0
100
AcDbLine
 10
5.3424810237
 20
7.986108749299999
 30
0.0
 11
5.032481023699999
 21
7.986108749299999
 31
0.0
  0
LINE
  5
590
330
1B
100
AcDbEntity
  8
0
  6
Continuous
 62
     0
100
AcDbLine
 10
9.0174810237
 20
8.011108749299999
 30
0.0
 11
8.6574810237
 21
8.011108749299999
 31
0.0
  0
LINE
  5
591
330
1B
100
AcDbEntity
  8
0
  6
Continuous
 62
     0
100
AcDbLine
 10
5.367481023699999
 20
8.011108749299999
 30
0.0
 11
5.0074810237
 21
8.011108749299999
 31
0.0
  0
LINE
  5
592
330
1B
100
AcDbEntity
  8
0
  6
Continuous
 62
     0
100
AcDbLine
 10
4.902981023699999
 20
8.039894167399999
 30
0.0
 11
4.952481023699999
 21
8.039894167399999
 31
0.0
  0
LINE
  5
593
330
1B
100
AcDbEntity
  8
0
  6
Continuous
 62
     0
100
AcDbLine
 10
5.422481023699999
 20
8.039894167399999
 30
0.0
 11
5.4529810237
 21
8.039894167399999
 31
0.0
  0
LINE
  5
594
330
1B
100
AcDbEntity
  8
0
  6
Continuous
 62
     0
100
AcDbLine
 10
8.552981023699999
 20
8.039894167399999
 30
0.0
 11
8.602481023699999
 21
8.039894167399999
 31
0.0
  0
LINE
  5
595
330
1B
100
AcDbEntity
  8
0
  6
Continuous
 62
     0
100
AcDbLine
 10
9.072481023699999
 20
8.039894167399999
 30
0.0
 11
9.102981023699999
 21
8.039894167399999
 31
0.0
  0
LINE
  5
596
330
1B
100
AcDbEntity
  8
0
  6
Continuous
 62
     0
100
AcDbLine
 10
4.902981023699999
 20
8.040505048099999
 30
0.0
 11
4.952481023699999
 21
8.040505048099999
 31
0.0
  0
LINE
  5
597
330
1B
100
AcDbEntity
  8
0
  6
Continuous
 62
     0
100
AcDbLine
 10
5.422481023699999
 20
8.040505048099999
 30
0.0
 11
5.4529810237
 21
8.040505048099999
 31
0.0
  0
LINE
  5
598
330
1B
100
AcDbEntity
  8
0
  6
Continuous
 62
     0
100
AcDbLine
 10
8.552981023699999
 20
8.040505048099999
 30
0.0
 11
8.602481023699999
 21
8.040505048099999
 31
0.0
  0
LINE
  5
599
330
1B
100
AcDbEntity
  8
0
  6
Continuous
 62
     0
100
AcDbLine
 10
9.072481023699999
 20
8.040505048099999
 30
0.0
 11
9.102981023699999
 21
8.040505048099999
 31
0.0
  0
LINE
  5
59A
330
1B
100
AcDbEntity
  8
0
  6
Continuous
 62
     0
100
AcDbLine
 10
5.0074810237
 20
8.041108749299999
 30
0.0
 11
5.367481023699999
 21
8.041108749299999
 31
0.0
  0
LINE
  5
59B
330
1B
100
AcDbEntity
  8
0
  6
Continuous
 62
     0
100
AcDbLine
 10
8.6574810237
 20
8.041108749299999
 30
0.0
 11
9.0174810237
 21
8.041108749299999
 31
0.0
  0
LINE
  5
59C
330
1B
100
AcDbEntity
  8
0
  6
Continuous
 62
     0
100
AcDbLine
 10
8.6574810237
 20
8.611108749299999
 30
0.0
 11
8.682481023699999
 21
8.586108749299999
 31
0.0
  0
LINE
  5
59D
330
1B
100
AcDbEntity
  8
0
  6
Continuous
 62
     0
100
AcDbLine
 10
8.6574810237
 20
8.811108749299998
 30
0.0
 11
8.682481023699999
 21
8.7861087493
 31
0.0
  0
LINE
  5
59E
330
1B
100
AcDbEntity
  8
0
  6
Continuous
 62
     0
100
AcDbLine
 10
9.0174810237
 20
8.477108749299999
 30
0.0
 11
8.992481023699999
 21
8.502108749299999
 31
0.0
  0
LINE
  5
59F
330
1B
100
AcDbEntity
  8
0
  6
Continuous
 62
     0
100
AcDbLine
 10
9.0174810237
 20
8.6771087493
 30
0.0
 11
8.992481023699999
 21
8.702108749299998
 31
0.0
  0
LINE
  5
5A0
330
1B
100
AcDbEntity
  8
0
  6
Continuous
 62
     0
100
AcDbLine
 10
9.477481023699999
 20
12.9195087493
 30
0.0
 11
9.477481023699999
 21
13.0391087493
 31
0.0
  0
LINE
  5
5A1
330
1B
100
AcDbEntity
  8
0
  6
Continuous
 62
     0
100
AcDbLine
 10
9.5617143475
 20
4.1266126809
 30
0.0
 11
9.5617143475
 21
4.314108749299999
 31
0.0
  0
LINE
  5
5A2
330
1B
100
AcDbEntity
  8
0
  6
Continuous
 62
     0
100
AcDbLine
 10
9.5617143475
 20
4.364108749299999
 30
0.0
 11
9.5617143475
 21
4.551604817699999
 31
0.0
  0
LINE
  5
5A3
330
1B
100
AcDbEntity
  8
0
  6
Continuous
 62
     0
100
AcDbLine
 10
9.604782874299999
 20
12.6384105999
 30
0.0
 11
9.604782874299999
 21
11.0141087493
 31
0.0
  0
LINE
  5
5A4
330
1B
100
AcDbEntity
  8
0
  6
Continuous
 62
     0
100
AcDbLine
 10
9.605481023699999
 20
11.0141087493
 30
0.0
 11
9.605481023699999
 21
12.6391087493
 31
0.0
  0
LINE
  5
5A5
330
1B
100
AcDbEntity
  8
0
  6
Continuous
 62
     0
100
AcDbLine
 10
9.615481023699999
 20
5.2641087493
 30
0.0
 11
9.615481023699999
 21
11.0141087493
 31
0.0
  0
LINE
  5
5A6
330
1B
100
AcDbEntity
  8
0
  6
Continuous
 62
     0
100
AcDbLine
 10
9.627481023699999
 20
4.2141087493
 30
0.0
 11
9.627481023699999
 21
3.689108749299999
 31
0.0
  0
LINE
  5
5A7
330
1B
100
AcDbEntity
  8
0
  6
Continuous
 62
     0
100
AcDbLine
 10
9.627481023699999
 20
4.4641087493
 30
0.0
 11
9.627481023699999
 21
13.0391087493
 31
0.0
  0
LINE
  5
5A8
330
1B
100
AcDbEntity
  8
0
  6
Continuous
 62
     0
100
AcDbLine
 10
9.0174810237
 20
7.811108749299999
 30
0.0
 11
8.992481023699999
 21
7.786108749299999
 31
0.0
  0
LINE
  5
5A9
330
1B
100
AcDbEntity
  8
0
  6
Continuous
 62
     0
100
AcDbLine
 10
8.6574810237
 20
7.077108749299999
 30
0.0
 11
8.682481023699999
 21
7.102108749299999
 31
0.0
  0
LINE
  5
5AA
330
1B
100
AcDbEntity
  8
0
  6
Continuous
 62
     0
100
AcDbLine
 10
9.0174810237
 20
7.211108749299999
 30
0.0
 11
8.992481023699999
 21
7.186108749299999
 31
0.0
  0
LINE
  5
5AB
330
1B
100
AcDbEntity
  8
0
  6
Continuous
 62
     0
100
AcDbLine
 10
4.902981023699999
 20
8.412712450499999
 30
0.0
 11
4.952481023699999
 21
8.412712450499999
 31
0.0
  0
LINE
  5
5AC
330
1B
100
AcDbEntity
  8
0
  6
Continuous
 62
     0
100
AcDbLine
 10
5.422481023699999
 20
8.412712450499999
 30
0.0
 11
5.4529810237
 21
8.412712450499999
 31
0.0
  0
LINE
  5
5AD
330
1B
100
AcDbEntity
  8
0
  6
Continuous
 62
     0
100
AcDbLine
 10
8.552981023699999
 20
8.412712450499999
 30
0.0
 11
8.602481023699999
 21
8.412712450499999
 31
0.0
  0
LINE
  5
5AE
330
1B
100
AcDbEntity
  8
0
  6
Continuous
 62
     0
100
AcDbLine
 10
9.072481023699999
 20
8.412712450499999
 30
0.0
 11
9.102981023699999
 21
8.412712450499999
 31
0.0
  0
LINE
  5
5AF
330
1B
100
AcDbEntity
  8
0
  6
Continuous
 62
     0
100
AcDbLine
 10
9.102981023699999
 20
8.4133233312
 30
0.0
 11
9.072481023699999
 21
8.4133233312
 31
0.0
  0
LINE
  5
5B0
330
1B
100
AcDbEntity
  8
0
  6
Continuous
 62
     0
100
AcDbLine
 10
8.602481023699999
 20
8.4133233312
 30
0.0
 11
8.552981023699999
 21
8.4133233312
 31
0.0
  0
LINE
  5
5B1
330
1B
100
AcDbEntity
  8
0
  6
Continuous
 62
     0
100
AcDbLine
 10
5.4529810237
 20
8.4133233312
 30
0.0
 11
5.422481023699999
 21
8.4133233312
 31
0.0
  0
LINE
  5
5B2
330
1B
100
AcDbEntity
  8
0
  6
Continuous
 62
     0
100
AcDbLine
 10
4.952481023699999
 20
8.4133233312
 30
0.0
 11
4.902981023699999
 21
8.4133233312
 31
0.0
  0
LINE
  5
5B3
330
1B
100
AcDbEntity
  8
0
  6
Continuous
 62
     0
100
AcDbLine
 10
9.0174810237
 20
8.447108749299999
 30
0.0
 11
8.6574810237
 21
8.447108749299999
 31
0.0
  0
LINE
  5
5B4
330
1B
100
AcDbEntity
  8
0
  6
Continuous
 62
     0
100
AcDbLine
 10
5.367481023699999
 20
8.447108749299999
 30
0.0
 11
5.0074810237
 21
8.447108749299999
 31
0.0
  0
LINE
  5
5B5
330
1B
100
AcDbEntity
  8
0
  6
Continuous
 62
     0
100
AcDbLine
 10
5.0074810237
 20
8.477108749299999
 30
0.0
 11
5.367481023699999
 21
8.477108749299999
 31
0.0
  0
LINE
  5
5B6
330
1B
100
AcDbEntity
  8
0
  6
Continuous
 62
     0
100
AcDbLine
 10
8.6574810237
 20
8.477108749299999
 30
0.0
 11
9.0174810237
 21
8.477108749299999
 31
0.0
  0
LINE
  5
5B7
330
1B
100
AcDbEntity
  8
0
  6
Continuous
 62
     0
100
AcDbLine
 10
5.032481023699999
 20
8.502108749299999
 30
0.0
 11
5.3424810237
 21
8.502108749299999
 31
0.0
  0
LINE
  5
5B8
330
1B
100
AcDbEntity
  8
0
  6
Continuous
 62
     0
100
AcDbLine
 10
8.682481023699999
 20
8.502108749299999
 30
0.0
 11
8.992481023699999
 21
8.502108749299999
 31
0.0
  0
LINE
  5
5B9
330
1B
100
AcDbEntity
  8
0
  6
Continuous
 62
     0
100
AcDbLine
 10
5.032481023699999
 20
8.5056087493
 30
0.0
 11
5.3424810237
 21
8.5056087493
 31
0.0
  0
LINE
  5
5BA
330
1B
100
AcDbEntity
  8
0
  6
Continuous
 62
     0
100
AcDbLine
 10
8.682481023699999
 20
8.5056087493
 30
0.0
 11
8.992481023699999
 21
8.5056087493
 31
0.0
  0
LINE
  5
5BB
330
1B
100
AcDbEntity
  8
0
  6
Continuous
 62
     0
100
AcDbLine
 10
6.883788110299999
 20
8.5360575682
 30
0.0
 11
6.847173937099999
 21
8.5360575682
 31
0.0
  0
LINE
  5
5BC
330
1B
100
AcDbEntity
  8
0
  6
Continuous
 62
     0
100
AcDbLine
 10
8.992481023699999
 20
8.5826087493
 30
0.0
 11
8.682481023699999
 21
8.5826087493
 31
0.0
  0
LINE
  5
5BD
330
1B
100
AcDbEntity
  8
0
  6
Continuous
 62
     0
100
AcDbLine
 10
5.3424810237
 20
8.5826087493
 30
0.0
 11
5.032481023699999
 21
8.5826087493
 31
0.0
  0
LINE
  5
5BE
330
1B
100
AcDbEntity
  8
0
  6
Continuous
 62
     0
100
AcDbLine
 10
8.992481023699999
 20
8.586108749299999
 30
0.0
 11
8.682481023699999
 21
8.586108749299999
 31
0.0
  0
LINE
  5
5BF
330
1B
100
AcDbEntity
  8
0
  6
Continuous
 62
     0
100
AcDbLine
 10
5.3424810237
 20
8.586108749299999
 30
0.0
 11
5.032481023699999
 21
8.586108749299999
 31
0.0
  0
LINE
  5
5C0
330
1B
100
AcDbEntity
  8
0
  6
Continuous
 62
     0
100
AcDbLine
 10
6.9560322048
 20
8.6083016627
 30
0.0
 11
6.903473149699999
 21
8.6083016627
 31
0.0
  0
LINE
  5
5C1
330
1B
100
AcDbEntity
  8
0
  6
Continuous
 62
     0
100
AcDbLine
 10
6.827488897699999
 20
8.6083016627
 30
0.0
 11
6.774929842599999
 21
8.6083016627
 31
0.0
  0
LINE
  5
5C2
330
1B
100
AcDbEntity
  8
0
  6
Continuous
 62
     0
100
AcDbLine
 10
9.0174810237
 20
8.611108749299999
 30
0.0
 11
8.6574810237
 21
8.611108749299999
 31
0.0
  0
LINE
  5
5C3
330
1B
100
AcDbEntity
  8
0
  6
Continuous
 62
     0
100
AcDbLine
 10
5.367481023699999
 20
8.611108749299999
 30
0.0
 11
5.0074810237
 21
8.611108749299999
 31
0.0
  0
LINE
  5
5C4
330
1B
100
AcDbEntity
  8
0
  6
Continuous
 62
     0
100
AcDbLine
 10
6.774929842599999
 20
8.6449158359
 30
0.0
 11
6.827488897699999
 21
8.6449158359
 31
0.0
  0
LINE
  5
5C5
330
1B
100
AcDbEntity
  8
0
  6
Continuous
 62
     0
100
AcDbLine
 10
6.903473149699999
 20
8.6449158359
 30
0.0
 11
6.9560322048
 21
8.6449158359
 31
0.0
  0
LINE
  5
5C6
330
1B
100
AcDbEntity
  8
0
  6
Continuous
 62
     0
100
AcDbLine
 10
5.0074810237
 20
8.6771087493
 30
0.0
 11
5.367481023699999
 21
8.6771087493
 31
0.0
  0
LINE
  5
5C7
330
1B
100
AcDbEntity
  8
0
  6
Continuous
 62
     0
100
AcDbLine
 10
8.6574810237
 20
8.6771087493
 30
0.0
 11
9.0174810237
 21
8.6771087493
 31
0.0
  0
LINE
  5
5C8
330
1B
100
AcDbEntity
  8
0
  6
Continuous
 62
     0
100
AcDbLine
 10
5.032481023699999
 20
8.702108749299998
 30
0.0
 11
5.3424810237
 21
8.702108749299998
 31
0.0
  0
LINE
  5
5C9
330
1B
100
AcDbEntity
  8
0
  6
Continuous
 62
     0
100
AcDbLine
 10
8.682481023699999
 20
8.702108749299998
 30
0.0
 11
8.992481023699999
 21
8.702108749299998
 31
0.0
  0
LINE
  5
5CA
330
1B
100
AcDbEntity
  8
0
  6
Continuous
 62
     0
100
AcDbLine
 10
5.032481023699999
 20
8.705608749299999
 30
0.0
 11
5.3424810237
 21
8.705608749299999
 31
0.0
  0
LINE
  5
5CB
330
1B
100
AcDbEntity
  8
0
  6
Continuous
 62
     0
100
AcDbLine
 10
8.682481023699999
 20
8.705608749299999
 30
0.0
 11
8.992481023699999
 21
8.705608749299999
 31
0.0
  0
LINE
  5
5CC
330
1B
100
AcDbEntity
  8
0
  6
Continuous
 62
     0
100
AcDbLine
 10
6.847173937099999
 20
8.717159930399999
 30
0.0
 11
6.883788110299999
 21
8.717159930399999
 31
0.0
  0
LINE
  5
5CD
330
1B
100
AcDbEntity
  8
0
  6
Continuous
 62
     0
100
AcDbLine
 10
8.992481023699999
 20
8.782608749299999
 30
0.0
 11
8.682481023699999
 21
8.782608749299999
 31
0.0
  0
LINE
  5
5CE
330
1B
100
AcDbEntity
  8
0
  6
Continuous
 62
     0
100
AcDbLine
 10
5.3424810237
 20
8.782608749299999
 30
0.0
 11
5.032481023699999
 21
8.782608749299999
 31
0.0
  0
LINE
  5
5CF
330
1B
100
AcDbEntity
  8
0
  6
Continuous
 62
     0
100
AcDbLine
 10
8.992481023699999
 20
8.7861087493
 30
0.0
 11
8.682481023699999
 21
8.7861087493
 31
0.0
  0
LINE
  5
5D0
330
1B
100
AcDbEntity
  8
0
  6
Continuous
 62
     0
100
AcDbLine
 10
5.3424810237
 20
8.7861087493
 30
0.0
 11
5.032481023699999
 21
8.7861087493
 31
0.0
  0
LINE
  5
5D1
330
1B
100
AcDbEntity
  8
0
  6
Continuous
 62
     0
100
AcDbLine
 10
9.0174810237
 20
8.811108749299998
 30
0.0
 11
8.6574810237
 21
8.811108749299998
 31
0.0
  0
LINE
  5
5D2
330
1B
100
AcDbEntity
  8
0
  6
Continuous
 62
     0
100
AcDbLine
 10
5.367481023699999
 20
8.811108749299998
 30
0.0
 11
5.0074810237
 21
8.811108749299998
 31
0.0
  0
LINE
  5
5D3
330
1B
100
AcDbEntity
  8
0
  6
Continuous
 62
     0
100
AcDbLine
 10
8.6574810237
 20
9.4111087493
 30
0.0
 11
8.682481023699999
 21
9.386108749299999
 31
0.0
  0
LINE
  5
5D4
330
1B
100
AcDbEntity
  8
0
  6
Continuous
 62
     0
100
AcDbLine
 10
8.6574810237
 20
9.611108749299999
 30
0.0
 11
8.682481023699999
 21
9.586108749299999
 31
0.0
  0
LINE
  5
5D5
330
1B
100
AcDbEntity
  8
0
  6
Continuous
 62
     0
100
AcDbLine
 10
9.0174810237
 20
9.277108749299999
 30
0.0
 11
8.992481023699999
 21
9.3021087493
 31
0.0
  0
LINE
  5
5D6
330
1B
100
AcDbEntity
  8
0
  6
Continuous
 62
     0
100
AcDbLine
 10
8.6574810237
 20
6.702108749299999
 30
0.0
 11
8.682481023699999
 21
6.727108749299999
 31
0.0
  0
LINE
  5
5D7
330
1B
100
AcDbEntity
  8
0
  6
Continuous
 62
     0
100
AcDbLine
 10
9.0174810237
 20
6.836108749299999
 30
0.0
 11
8.992481023699999
 21
6.811108749299999
 31
0.0
  0
LINE
  5
5D8
330
1B
100
AcDbEntity
  8
0
  6
Continuous
 62
     0
100
AcDbLine
 10
8.7184810237
 20
6.505108749299999
 30
0.0
 11
8.698481023699999
 21
6.485108749299999
 31
0.0
  0
LINE
  5
5D9
330
1B
100
AcDbEntity
  8
0
  6
Continuous
 62
     0
100
AcDbLine
 10
8.646481023699999
 20
6.433108749299999
 30
0.0
 11
8.666481023699999
 21
6.453108749299999
 31
0.0
  0
LINE
  5
5DA
330
1B
100
AcDbEntity
  8
0
  6
Continuous
 62
     0
100
AcDbLine
 10
8.7184810237
 20
6.405108749299999
 30
0.0
 11
8.698481023699999
 21
6.385108749299999
 31
0.0
  0
LINE
  5
5DB
330
1B
100
AcDbEntity
  8
0
  6
Continuous
 62
     0
100
AcDbLine
 10
8.646481023699999
 20
6.333108749299999
 30
0.0
 11
8.666481023699999
 21
6.353108749299999
 31
0.0
  0
LINE
  5
5DC
330
1B
100
AcDbEntity
  8
0
  6
Continuous
 62
     0
100
AcDbLine
 10
8.8218110237
 20
6.505108749299999
 30
0.0
 11
8.8018110237
 21
6.485108749299999
 31
0.0
  0
LINE
  5
5DD
330
1B
100
AcDbEntity
  8
0
  6
Continuous
 62
     0
100
AcDbLine
 10
8.749811023699999
 20
6.433108749299999
 30
0.0
 11
8.7698110237
 21
6.453108749299999
 31
0.0
  0
LINE
  5
5DE
330
1B
100
AcDbEntity
  8
0
  6
Continuous
 62
     0
100
AcDbLine
 10
8.7184810237
 20
6.305108749299999
 30
0.0
 11
8.698481023699999
 21
6.285108749299999
 31
0.0
  0
LINE
  5
5DF
330
1B
100
AcDbEntity
  8
0
  6
Continuous
 62
     0
100
AcDbLine
 10
8.646481023699999
 20
6.233108749299999
 30
0.0
 11
8.666481023699999
 21
6.253108749299999
 31
0.0
  0
LINE
  5
5E0
330
1B
100
AcDbEntity
  8
0
  6
Continuous
 62
     0
100
AcDbLine
 10
8.8218110237
 20
6.405108749299999
 30
0.0
 11
8.8018110237
 21
6.385108749299999
 31
0.0
  0
LINE
  5
5E1
330
1B
100
AcDbEntity
  8
0
  6
Continuous
 62
     0
100
AcDbLine
 10
8.749811023699999
 20
6.333108749299999
 30
0.0
 11
8.7698110237
 21
6.353108749299999
 31
0.0
  0
LINE
  5
5E2
330
1B
100
AcDbEntity
  8
0
  6
Continuous
 62
     0
100
AcDbLine
 10
8.9251410237
 20
6.505108749299999
 30
0.0
 11
8.9051410237
 21
6.485108749299999
 31
0.0
  0
LINE
  5
5E3
330
1B
100
AcDbEntity
  8
0
  6
Continuous
 62
     0
100
AcDbLine
 10
8.853141023699999
 20
6.433108749299999
 30
0.0
 11
8.8731410237
 21
6.453108749299999
 31
0.0
  0
LINE
  5
5E4
330
1B
100
AcDbEntity
  8
0
  6
Continuous
 62
     0
100
AcDbLine
 10
4.902981023699999
 20
8.839108749299999
 30
0.0
 11
4.952481023699999
 21
8.839108749299999
 31
0.0
  0
LINE
  5
5E5
330
1B
100
AcDbEntity
  8
0
  6
Continuous
 62
     0
100
AcDbLine
 10
5.422481023699999
 20
8.839108749299999
 30
0.0
 11
5.4529810237
 21
8.839108749299999
 31
0.0
  0
LINE
  5
5E6
330
1B
100
AcDbEntity
  8
0
  6
Continuous
 62
     0
100
AcDbLine
 10
8.552981023699999
 20
8.839108749299999
 30
0.0
 11
8.602481023699999
 21
8.839108749299999
 31
0.0
  0
LINE
  5
5E7
330
1B
100
AcDbEntity
  8
0
  6
Continuous
 62
     0
100
AcDbLine
 10
9.072481023699999
 20
8.839108749299999
 30
0.0
 11
9.102981023699999
 21
8.839108749299999
 31
0.0
  0
LINE
  5
5E8
330
1B
100
AcDbEntity
  8
0
  6
Continuous
 62
     0
100
AcDbLine
 10
4.902981023699999
 20
8.839719629999999
 30
0.0
 11
4.952481023699999
 21
8.839719629999999
 31
0.0
  0
LINE
  5
5E9
330
1B
100
AcDbEntity
  8
0
  6
Continuous
 62
     0
100
AcDbLine
 10
5.422481023699999
 20
8.839719629999999
 30
0.0
 11
5.4529810237
 21
8.839719629999999
 31
0.0
  0
LINE
  5
5EA
330
1B
100
AcDbEntity
  8
0
  6
Continuous
 62
     0
100
AcDbLine
 10
8.552981023699999
 20
8.839719629999999
 30
0.0
 11
8.602481023699999
 21
8.839719629999999
 31
0.0
  0
LINE
  5
5EB
330
1B
100
AcDbEntity
  8
0
  6
Continuous
 62
     0
100
AcDbLine
 10
9.072481023699999
 20
8.839719629999999
 30
0.0
 11
9.102981023699999
 21
8.839719629999999
 31
0.0
  0
LINE
  5
5EC
330
1B
100
AcDbEntity
  8
0
  6
Continuous
 62
     0
100
AcDbLine
 10
5.0074810237
 20
8.8411087493
 30
0.0
 11
5.367481023699999
 21
8.8411087493
 31
0.0
  0
LINE
  5
5ED
330
1B
100
AcDbEntity
  8
0
  6
Continuous
 62
     0
100
AcDbLine
 10
8.6574810237
 20
8.8411087493
 30
0.0
 11
9.0174810237
 21
8.8411087493
 31
0.0
  0
LINE
  5
5EE
330
1B
100
AcDbEntity
  8
0
  6
Continuous
 62
     0
100
AcDbLine
 10
4.902981023699999
 20
9.212712450499999
 30
0.0
 11
4.952481023699999
 21
9.212712450499999
 31
0.0
  0
LINE
  5
5EF
330
1B
100
AcDbEntity
  8
0
  6
Continuous
 62
     0
100
AcDbLine
 10
5.422481023699999
 20
9.212712450499999
 30
0.0
 11
5.4529810237
 21
9.212712450499999
 31
0.0
  0
LINE
  5
5F0
330
1B
100
AcDbEntity
  8
0
  6
Continuous
 62
     0
100
AcDbLine
 10
8.552981023699999
 20
9.212712450499999
 30
0.0
 11
8.602481023699999
 21
9.212712450499999
 31
0.0
  0
LINE
  5
5F1
330
1B
100
AcDbEntity
  8
0
  6
Continuous
 62
     0
100
AcDbLine
 10
9.072481023699999
 20
9.212712450499999
 30
0.0
 11
9.102981023699999
 21
9.212712450499999
 31
0.0
  0
LINE
  5
5F2
330
1B
100
AcDbEntity
  8
0
  6
Continuous
 62
     0
100
AcDbLine
 10
9.102981023699999
 20
9.213323331199999
 30
0.0
 11
9.072481023699999
 21
9.213323331199999
 31
0.0
  0
LINE
  5
5F3
330
1B
100
AcDbEntity
  8
0
  6
Continuous
 62
     0
100
AcDbLine
 10
8.602481023699999
 20
9.213323331199999
 30
0.0
 11
8.552981023699999
 21
9.213323331199999
 31
0.0
  0
LINE
  5
5F4
330
1B
100
AcDbEntity
  8
0
  6
Continuous
 62
     0
100
AcDbLine
 10
5.4529810237
 20
9.213323331199999
 30
0.0
 11
5.422481023699999
 21
9.213323331199999
 31
0.0
  0
LINE
  5
5F5
330
1B
100
AcDbEntity
  8
0
  6
Continuous
 62
     0
100
AcDbLine
 10
4.952481023699999
 20
9.213323331199999
 30
0.0
 11
4.902981023699999
 21
9.213323331199999
 31
0.0
  0
LINE
  5
5F6
330
1B
100
AcDbEntity
  8
0
  6
Continuous
 62
     0
100
AcDbLine
 10
9.0174810237
 20
9.247108749299998
 30
0.0
 11
8.6574810237
 21
9.247108749299998
 31
0.0
  0
LINE
  5
5F7
330
1B
100
AcDbEntity
  8
0
  6
Continuous
 62
     0
100
AcDbLine
 10
5.367481023699999
 20
9.247108749299998
 30
0.0
 11
5.0074810237
 21
9.247108749299998
 31
0.0
  0
LINE
  5
5F8
330
1B
100
AcDbEntity
  8
0
  6
Continuous
 62
     0
100
AcDbLine
 10
5.0074810237
 20
9.277108749299999
 30
0.0
 11
5.367481023699999
 21
9.277108749299999
 31
0.0
  0
LINE
  5
5F9
330
1B
100
AcDbEntity
  8
0
  6
Continuous
 62
     0
100
AcDbLine
 10
8.6574810237
 20
9.277108749299999
 30
0.0
 11
9.0174810237
 21
9.277108749299999
 31
0.0
  0
LINE
  5
5FA
330
1B
100
AcDbEntity
  8
0
  6
Continuous
 62
     0
100
AcDbLine
 10
9.0174810237
 20
9.477108749299999
 30
0.0
 11
8.992481023699999
 21
9.502108749299999
 31
0.0
  0
LINE
  5
5FB
330
1B
100
AcDbEntity
  8
0
  6
Continuous
 62
     0
100
AcDbLine
 10
8.8218110237
 20
6.305108749299999
 30
0.0
 11
8.8018110237
 21
6.285108749299999
 31
0.0
  0
LINE
  5
5FC
330
1B
100
AcDbEntity
  8
0
  6
Continuous
 62
     0
100
AcDbLine
 10
8.749811023699999
 20
6.233108749299999
 30
0.0
 11
8.7698110237
 21
6.253108749299999
 31
0.0
  0
LINE
  5
5FD
330
1B
100
AcDbEntity
  8
0
  6
Continuous
 62
     0
100
AcDbLine
 10
8.9251410237
 20
6.405108749299999
 30
0.0
 11
8.9051410237
 21
6.385108749299999
 31
0.0
  0
LINE
  5
5FE
330
1B
100
AcDbEntity
  8
0
  6
Continuous
 62
     0
100
AcDbLine
 10
8.853141023699999
 20
6.333108749299999
 30
0.0
 11
8.8731410237
 21
6.353108749299999
 31
0.0
  0
LINE
  5
5FF
330
1B
100
AcDbEntity
  8
0
  6
Continuous
 62
     0
100
AcDbLine
 10
9.028471023699999
 20
6.505108749299999
 30
0.0
 11
9.0084710237
 21
6.485108749299999
 31
0.0
  0
LINE
  5
600
330
1B
100
AcDbEntity
  8
0
  6
Continuous
 62
     0
100
AcDbLine
 10
8.9564710237
 20
6.433108749299999
 30
0.0
 11
8.9764710237
 21
6.453108749299999
 31
0.0
  0
LINE
  5
601
330
1B
100
AcDbEntity
  8
0
  6
Continuous
 62
     0
100
AcDbLine
 10
8.9251410237
 20
6.305108749299999
 30
0.0
 11
8.9051410237
 21
6.285108749299999
 31
0.0
  0
LINE
  5
602
330
1B
100
AcDbEntity
  8
0
  6
Continuous
 62
     0
100
AcDbLine
 10
8.853141023699999
 20
6.233108749299999
 30
0.0
 11
8.8731410237
 21
6.253108749299999
 31
0.0
  0
LINE
  5
603
330
1B
100
AcDbEntity
  8
0
  6
Continuous
 62
     0
100
AcDbLine
 10
9.028471023699999
 20
6.405108749299999
 30
0.0
 11
9.0084710237
 21
6.385108749299999
 31
0.0
  0
LINE
  5
604
330
1B
100
AcDbEntity
  8
0
  6
Continuous
 62
     0
100
AcDbLine
 10
8.9564710237
 20
6.333108749299999
 30
0.0
 11
8.9764710237
 21
6.353108749299999
 31
0.0
  0
LINE
  5
605
330
1B
100
AcDbEntity
  8
0
  6
Continuous
 62
     0
100
AcDbLine
 10
9.028471023699999
 20
6.305108749299999
 30
0.0
 11
9.0084710237
 21
6.285108749299999
 31
0.0
  0
LINE
  5
606
330
1B
100
AcDbEntity
  8
0
  6
Continuous
 62
     0
100
AcDbLine
 10
8.9564710237
 20
6.233108749299999
 30
0.0
 11
8.9764710237
 21
6.253108749299999
 31
0.0
  0
LINE
  5
607
330
1B
100
AcDbEntity
  8
0
  6
Continuous
 62
     0
100
AcDbLine
 10
5.032481023699999
 20
9.3021087493
 30
0.0
 11
5.3424810237
 21
9.3021087493
 31
0.0
  0
LINE
  5
608
330
1B
100
AcDbEntity
  8
0
  6
Continuous
 62
     0
100
AcDbLine
 10
8.682481023699999
 20
9.3021087493
 30
0.0
 11
8.992481023699999
 21
9.3021087493
 31
0.0
  0
LINE
  5
609
330
1B
100
AcDbEntity
  8
0
  6
Continuous
 62
     0
100
AcDbLine
 10
5.032481023699999
 20
9.305608749299999
 30
0.0
 11
5.3424810237
 21
9.305608749299999
 31
0.0
  0
LINE
  5
60A
330
1B
100
AcDbEntity
  8
0
  6
Continuous
 62
     0
100
AcDbLine
 10
8.682481023699999
 20
9.305608749299999
 30
0.0
 11
8.992481023699999
 21
9.305608749299999
 31
0.0
  0
LINE
  5
60B
330
1B
100
AcDbEntity
  8
0
  6
Continuous
 62
     0
100
AcDbLine
 10
8.992481023699999
 20
9.382608749299999
 30
0.0
 11
8.682481023699999
 21
9.382608749299999
 31
0.0
  0
LINE
  5
60C
330
1B
100
AcDbEntity
  8
0
  6
Continuous
 62
     0
100
AcDbLine
 10
5.3424810237
 20
9.382608749299999
 30
0.0
 11
5.032481023699999
 21
9.382608749299999
 31
0.0
  0
LINE
  5
60D
330
1B
100
AcDbEntity
  8
0
  6
Continuous
 62
     0
100
AcDbLine
 10
8.992481023699999
 20
9.386108749299999
 30
0.0
 11
8.682481023699999
 21
9.386108749299999
 31
0.0
  0
LINE
  5
60E
330
1B
100
AcDbEntity
  8
0
  6
Continuous
 62
     0
100
AcDbLine
 10
5.3424810237
 20
9.386108749299999
 30
0.0
 11
5.032481023699999
 21
9.386108749299999
 31
0.0
  0
LINE
  5
60F
330
1B
100
AcDbEntity
  8
0
  6
Continuous
 62
     0
100
AcDbLine
 10
9.0174810237
 20
9.4111087493
 30
0.0
 11
8.6574810237
 21
9.4111087493
 31
0.0
  0
LINE
  5
610
330
1B
100
AcDbEntity
  8
0
  6
Continuous
 62
     0
100
AcDbLine
 10
5.367481023699999
 20
9.4111087493
 30
0.0
 11
5.0074810237
 21
9.4111087493
 31
0.0
  0
LINE
  5
611
330
1B
100
AcDbEntity
  8
0
  6
Continuous
 62
     0
100
AcDbLine
 10
5.0074810237
 20
9.477108749299999
 30
0.0
 11
5.367481023699999
 21
9.477108749299999
 31
0.0
  0
LINE
  5
612
330
1B
100
AcDbEntity
  8
0
  6
Continuous
 62
     0
100
AcDbLine
 10
8.6574810237
 20
9.477108749299999
 30
0.0
 11
9.0174810237
 21
9.477108749299999
 31
0.0
  0
LINE
  5
613
330
1B
100
AcDbEntity
  8
0
  6
Continuous
 62
     0
100
AcDbLine
 10
5.032481023699999
 20
9.502108749299999
 30
0.0
 11
5.3424810237
 21
9.502108749299999
 31
0.0
  0
LINE
  5
614
330
1B
100
AcDbEntity
  8
0
  6
Continuous
 62
     0
100
AcDbLine
 10
8.682481023699999
 20
9.502108749299999
 30
0.0
 11
8.992481023699999
 21
9.502108749299999
 31
0.0
  0
LINE
  5
615
330
1B
100
AcDbEntity
  8
0
  6
Continuous
 62
     0
100
AcDbLine
 10
5.032481023699999
 20
9.5056087493
 30
0.0
 11
5.3424810237
 21
9.5056087493
 31
0.0
  0
LINE
  5
616
330
1B
100
AcDbEntity
  8
0
  6
Continuous
 62
     0
100
AcDbLine
 10
8.682481023699999
 20
9.5056087493
 30
0.0
 11
8.992481023699999
 21
9.5056087493
 31
0.0
  0
LINE
  5
617
330
1B
100
AcDbEntity
  8
0
  6
Continuous
 62
     0
100
AcDbLine
 10
8.992481023699999
 20
9.5826087493
 30
0.0
 11
8.682481023699999
 21
9.5826087493
 31
0.0
  0
LINE
  5
618
330
1B
100
AcDbEntity
  8
0
  6
Continuous
 62
     0
100
AcDbLine
 10
5.3424810237
 20
9.5826087493
 30
0.0
 11
5.032481023699999
 21
9.5826087493
 31
0.0
  0
LINE
  5
619
330
1B
100
AcDbEntity
  8
0
  6
Continuous
 62
     0
100
AcDbLine
 10
8.992481023699999
 20
9.586108749299999
 30
0.0
 11
8.682481023699999
 21
9.586108749299999
 31
0.0
  0
LINE
  5
61A
330
1B
100
AcDbEntity
  8
0
  6
Continuous
 62
     0
100
AcDbLine
 10
5.3424810237
 20
9.586108749299999
 30
0.0
 11
5.032481023699999
 21
9.586108749299999
 31
0.0
  0
LINE
  5
61B
330
1B
100
AcDbEntity
  8
0
  6
Continuous
 62
     0
100
AcDbLine
 10
9.0174810237
 20
9.611108749299999
 30
0.0
 11
8.6574810237
 21
9.611108749299999
 31
0.0
  0
LINE
  5
61C
330
1B
100
AcDbEntity
  8
0
  6
Continuous
 62
     0
100
AcDbLine
 10
5.367481023699999
 20
9.611108749299999
 30
0.0
 11
5.0074810237
 21
9.611108749299999
 31
0.0
  0
LINE
  5
61D
330
1B
100
AcDbEntity
  8
0
  6
Continuous
 62
     0
100
AcDbLine
 10
5.0074810237
 20
9.644108749299999
 30
0.0
 11
5.367481023699999
 21
9.644108749299999
 31
0.0
  0
LINE
  5
61E
330
1B
100
AcDbEntity
  8
0
  6
Continuous
 62
     0
100
AcDbLine
 10
8.6574810237
 20
9.644108749299999
 30
0.0
 11
9.0174810237
 21
9.644108749299999
 31
0.0
  0
LINE
  5
61F
330
1B
100
AcDbEntity
  8
0
  6
Continuous
 62
     0
100
AcDbLine
 10
9.0174810237
 20
9.689108749299998
 30
0.0
 11
8.6574810237
 21
9.689108749299998
 31
0.0
  0
LINE
  5
620
330
1B
100
AcDbEntity
  8
0
  6
Continuous
 62
     0
100
AcDbLine
 10
5.367481023699999
 20
9.689108749299998
 30
0.0
 11
5.0074810237
 21
9.689108749299998
 31
0.0
  0
LINE
  5
621
330
1B
100
AcDbEntity
  8
0
  6
Continuous
 62
     0
100
AcDbLine
 10
4.952481023699999
 20
9.7191087493
 30
0.0
 11
5.422481023699999
 21
9.7191087493
 31
0.0
  0
LINE
  5
622
330
1B
100
AcDbEntity
  8
0
  6
Continuous
 62
     0
100
AcDbLine
 10
8.602481023699999
 20
9.7191087493
 30
0.0
 11
9.072481023699999
 21
9.7191087493
 31
0.0
  0
LINE
  5
623
330
1B
100
AcDbEntity
  8
0
  6
Continuous
 62
     0
100
AcDbLine
 10
9.102981023699999
 20
9.849108749299999
 30
0.0
 11
9.072481023699999
 21
9.849108749299999
 31
0.0
  0
LINE
  5
624
330
1B
100
AcDbEntity
  8
0
  6
Continuous
 62
     0
100
AcDbLine
 10
8.602481023699999
 20
9.849108749299999
 30
0.0
 11
8.552981023699999
 21
9.849108749299999
 31
0.0
  0
LINE
  5
625
330
1B
100
AcDbEntity
  8
0
  6
Continuous
 62
     0
100
AcDbLine
 10
5.4529810237
 20
9.849108749299999
 30
0.0
 11
5.422481023699999
 21
9.849108749299999
 31
0.0
  0
LINE
  5
626
330
1B
100
AcDbEntity
  8
0
  6
Continuous
 62
     0
100
AcDbLine
 10
4.952481023699999
 20
9.849108749299999
 30
0.0
 11
4.902981023699999
 21
9.849108749299999
 31
0.0
  0
LINE
  5
627
330
1B
100
AcDbEntity
  8
0
  6
Continuous
 62
     0
100
AcDbLine
 10
4.902981023699999
 20
9.849719629999999
 30
0.0
 11
4.952481023699999
 21
9.849719629999999
 31
0.0
  0
LINE
  5
628
330
1B
100
AcDbEntity
  8
0
  6
Continuous
 62
     0
100
AcDbLine
 10
5.422481023699999
 20
9.849719629999999
 30
0.0
 11
5.4529810237
 21
9.849719629999999
 31
0.0
  0
LINE
  5
629
330
1B
100
AcDbEntity
  8
0
  6
Continuous
 62
     0
100
AcDbLine
 10
8.552981023699999
 20
9.849719629999999
 30
0.0
 11
8.602481023699999
 21
9.849719629999999
 31
0.0
  0
LINE
  5
62A
330
1B
100
AcDbEntity
  8
0
  6
Continuous
 62
     0
100
AcDbLine
 10
9.072481023699999
 20
9.849719629999999
 30
0.0
 11
9.102981023699999
 21
9.849719629999999
 31
0.0
  0
LINE
  5
62B
330
1B
100
AcDbEntity
  8
0
  6
Continuous
 62
     0
100
AcDbLine
 10
4.952481023699999
 20
10.0191087493
 30
0.0
 11
5.422481023699999
 21
10.0191087493
 31
0.0
  0
LINE
  5
62C
330
1B
100
AcDbEntity
  8
0
  6
Continuous
 62
     0
100
AcDbLine
 10
8.602481023699999
 20
10.0191087493
 30
0.0
 11
9.072481023699999
 21
10.0191087493
 31
0.0
  0
LINE
  5
62D
330
1B
100
AcDbEntity
  8
0
  6
Continuous
 62
     0
100
AcDbLine
 10
9.042981023699999
 20
10.0586087493
 30
0.0
 11
8.612981023699999
 21
10.0586087493
 31
0.0
  0
LINE
  5
62E
330
1B
100
AcDbEntity
  8
0
  6
Continuous
 62
     0
100
AcDbLine
 10
5.392981023699999
 20
10.0586087493
 30
0.0
 11
4.9629810237
 21
10.0586087493
 31
0.0
  0
LINE
  5
62F
330
1B
100
AcDbEntity
  8
0
  6
Continuous
 62
     0
100
AcDbLine
 10
8.9337881103
 20
10.4485575682
 30
0.0
 11
8.897173937099999
 21
10.4485575682
 31
0.0
  0
LINE
  5
630
330
1B
100
AcDbEntity
  8
0
  6
Continuous
 62
     0
100
AcDbLine
 10
4.883788110299999
 20
10.4485575682
 30
0.0
 11
4.847173937099999
 21
10.4485575682
 31
0.0
  0
LINE
  5
631
330
1B
100
AcDbEntity
  8
0
  6
Continuous
 62
     0
100
AcDbLine
 10
9.0060322048
 20
10.5208016627
 30
0.0
 11
8.9534731497
 21
10.5208016627
 31
0.0
  0
LINE
  5
632
330
1B
100
AcDbEntity
  8
0
  6
Continuous
 62
     0
100
AcDbLine
 10
8.877488897699999
 20
10.5208016627
 30
0.0
 11
8.824929842599999
 21
10.5208016627
 31
0.0
  0
LINE
  5
633
330
1B
100
AcDbEntity
  8
0
  6
Continuous
 62
     0
100
AcDbLine
 10
4.9560322048
 20
10.5208016627
 30
0.0
 11
4.903473149699999
 21
10.5208016627
 31
0.0
  0
LINE
  5
634
330
1B
100
AcDbEntity
  8
0
  6
Continuous
 62
     0
100
AcDbLine
 10
4.827488897699999
 20
10.5208016627
 30
0.0
 11
4.774929842599999
 21
10.5208016627
 31
0.0
  0
LINE
  5
635
330
1B
100
AcDbEntity
  8
0
  6
Continuous
 62
     0
100
AcDbLine
 10
4.774929842599999
 20
10.5574158359
 30
0.0
 11
4.827488897699999
 21
10.5574158359
 31
0.0
  0
LINE
  5
636
330
1B
100
AcDbEntity
  8
0
  6
Continuous
 62
     0
100
AcDbLine
 10
4.903473149699999
 20
10.5574158359
 30
0.0
 11
4.9560322048
 21
10.5574158359
 31
0.0
  0
LINE
  5
637
330
1B
100
AcDbEntity
  8
0
  6
Continuous
 62
     0
100
AcDbLine
 10
8.824929842599999
 20
10.5574158359
 30
0.0
 11
8.877488897699999
 21
10.5574158359
 31
0.0
  0
LINE
  5
638
330
1B
100
AcDbEntity
  8
0
  6
Continuous
 62
     0
100
AcDbLine
 10
8.9534731497
 20
10.5574158359
 30
0.0
 11
9.0060322048
 21
10.5574158359
 31
0.0
  0
LINE
  5
639
330
1B
100
AcDbEntity
  8
0
  6
Continuous
 62
     0
100
AcDbLine
 10
4.847173937099999
 20
10.6296599304
 30
0.0
 11
4.883788110299999
 21
10.6296599304
 31
0.0
  0
LINE
  5
63A
330
1B
100
AcDbEntity
  8
0
  6
Continuous
 62
     0
100
AcDbLine
 10
8.897173937099999
 20
10.6296599304
 30
0.0
 11
8.9337881103
 21
10.6296599304
 31
0.0
  0
LINE
  5
63B
330
1B
100
AcDbEntity
  8
0
  6
Continuous
 62
     0
100
AcDbLine
 10
9.615481023699999
 20
11.0141087493
 30
0.0
 11
4.3654810237
 21
11.0141087493
 31
0.0
  0
LINE
  5
63C
330
1B
100
AcDbEntity
  8
0
  6
Continuous
 62
     0
100
AcDbLine
 10
4.3672263972
 20
11.0391087493
 30
0.0
 11
9.309192090199999
 21
11.0391087493
 31
0.0
  0
LINE
  5
63D
330
1B
100
AcDbEntity
  8
0
  6
Continuous
 62
     0
100
AcDbLine
 10
4.3677732856
 20
11.0396556377
 30
0.0
 11
9.305907841399999
 21
11.0396556377
 31
0.0
  0
LINE
  5
63E
330
1B
100
AcDbEntity
  8
0
  6
Continuous
 62
     0
100
AcDbLine
 10
9.309192090199999
 20
11.0391087493
 30
0.0
 11
9.305907841399999
 21
11.0396556377
 31
0.0
  0
LINE
  5
63F
330
1B
100
AcDbEntity
  8
0
  6
Continuous
 62
     0
100
AcDbLine
 10
4.3685629378
 20
11.3356193172
 30
0.0
 11
4.883109057599999
 21
11.3356193172
 31
0.0
  0
LINE
  5
640
330
1B
100
AcDbEntity
  8
0
  6
Continuous
 62
     0
100
AcDbLine
 10
5.571852989799999
 20
11.3356193172
 30
0.0
 11
8.3831090576
 21
11.3356193172
 31
0.0
  0
LINE
  5
641
330
1B
100
AcDbEntity
  8
0
  6
Continuous
 62
     0
100
AcDbLine
 10
9.071852989799999
 20
11.3356193172
 30
0.0
 11
9.301165714099999
 21
11.3356193172
 31
0.0
  0
LINE
  5
642
330
1B
100
AcDbEntity
  8
0
  6
Continuous
 62
     0
100
AcDbLine
 10
4.3687535991
 20
11.4818051696
 30
0.0
 11
4.8316069279
 21
11.4818051696
 31
0.0
  0
LINE
  5
643
330
1B
100
AcDbEntity
  8
0
  6
Continuous
 62
     0
100
AcDbLine
 10
5.6233551195
 20
11.4818051696
 30
0.0
 11
8.331606927899999
 21
11.4818051696
 31
0.0
  0
LINE
  5
644
330
1B
100
AcDbEntity
  8
0
  6
Continuous
 62
     0
100
AcDbLine
 10
9.123355119500001
 20
11.4818051696
 30
0.0
 11
9.300020728799999
 21
11.4818051696
 31
0.0
  0
LINE
  5
645
330
1B
100
AcDbEntity
  8
0
  6
Continuous
 62
     0
100
AcDbLine
 10
10.0117143475
 20
4.5891087493
 30
0.0
 11
9.636714347499999
 21
4.4641087493
 31
0.0
  0
LINE
  5
646
330
1B
100
AcDbEntity
  8
0
  6
Continuous
 62
     0
100
AcDbLine
 10
13.4617143475
 20
4.551604817699999
 30
0.0
 11
13.4617143475
 21
4.364108749299999
 31
0.0
  0
LINE
  5
647
330
1B
100
AcDbEntity
  8
0
  6
Continuous
 62
     0
100
AcDbLine
 10
13.4617143475
 20
4.314108749299999
 30
0.0
 11
13.4617143475
 21
4.1266126809
 31
0.0
  0
LINE
  5
648
330
1B
100
AcDbEntity
  8
0
  6
Continuous
 62
     0
100
AcDbLine
 10
4.3687535991
 20
12.1818051696
 30
0.0
 11
4.853799699999999
 21
12.1818051696
 31
0.0
  0
LINE
  5
649
330
1B
100
AcDbEntity
  8
0
  6
Continuous
 62
     0
100
AcDbLine
 10
5.601162347299999
 20
12.1818051696
 30
0.0
 11
8.353799699999999
 21
12.1818051696
 31
0.0
  0
LINE
  5
64A
330
1B
100
AcDbEntity
  8
0
  6
Continuous
 62
     0
100
AcDbLine
 10
9.1011623473
 20
12.1818051696
 30
0.0
 11
9.300020728799999
 21
12.1818051696
 31
0.0
  0
LINE
  5
64B
330
1B
100
AcDbEntity
  8
0
  6
Continuous
 62
     0
100
AcDbLine
 10
4.3682561272
 20
12.4136566336
 30
0.0
 11
5.0870748899
 21
12.4136566336
 31
0.0
  0
LINE
  5
64C
330
1B
100
AcDbEntity
  8
0
  6
Continuous
 62
     0
100
AcDbLine
 10
5.3678871575
 20
12.4136566336
 30
0.0
 11
8.5870748899
 21
12.4136566336
 31
0.0
  0
LINE
  5
64D
330
1B
100
AcDbEntity
  8
0
  6
Continuous
 62
     0
100
AcDbLine
 10
8.8678871575
 20
12.4136566336
 30
0.0
 11
9.3030082148
 21
12.4136566336
 31
0.0
  0
LINE
  5
64E
330
1B
100
AcDbEntity
  8
0
  6
Continuous
 62
     0
100
AcDbLine
 10
13.6367143475
 20
4.314108749299999
 30
0.0
 11
13.6367143475
 21
4.364108749299999
 31
0.0
  0
LINE
  5
64F
330
1B
100
AcDbEntity
  8
0
  6
Continuous
 62
     0
100
AcDbLine
 10
13.7367143475
 20
4.551604817699999
 30
0.0
 11
13.7367143475
 21
4.364108749299999
 31
0.0
  0
LINE
  5
650
330
1B
100
AcDbEntity
  8
0
  6
Continuous
 62
     0
100
AcDbLine
 10
13.7367143475
 20
4.314108749299999
 30
0.0
 11
13.7367143475
 21
4.1266126809
 31
0.0
  0
LINE
  5
651
330
1B
100
AcDbEntity
  8
0
  6
Continuous
 62
     0
100
AcDbLine
 10
9.3154810237
 20
12.6384105999
 30
0.0
 11
9.309143996999999
 21
12.6373553673
 31
0.0
  0
LINE
  5
652
330
1B
100
AcDbEntity
  8
0
  6
Continuous
 62
     0
100
AcDbLine
 10
4.367234405599999
 20
12.6373553673
 30
0.0
 11
9.309143996999999
 21
12.6373553673
 31
0.0
  0
LINE
  5
653
330
1B
100
AcDbEntity
  8
0
  6
Continuous
 62
     0
100
AcDbLine
 10
9.3154810237
 20
12.6384105999
 30
0.0
 11
9.604782874299999
 21
12.6384105999
 31
0.0
  0
LINE
  5
654
330
1B
100
AcDbEntity
  8
0
  6
Continuous
 62
     0
100
AcDbLine
 10
4.3654810237
 20
12.6391087493
 30
0.0
 11
9.605481023699999
 21
12.6391087493
 31
0.0
  0
LINE
  5
655
330
1B
100
AcDbEntity
  8
0
  6
Continuous
 62
     0
100
AcDbLine
 10
4.327481023699999
 20
12.8746087493
 30
0.0
 11
6.2174810237
 21
12.8746087493
 31
0.0
  0
LINE
  5
656
330
1B
100
AcDbEntity
  8
0
  6
Continuous
 62
     0
100
AcDbLine
 10
7.787481023699999
 20
12.8746087493
 30
0.0
 11
9.627481023699999
 21
12.8746087493
 31
0.0
  0
LINE
  5
657
330
1B
100
AcDbEntity
  8
0
  6
Continuous
 62
     0
100
AcDbLine
 10
4.327481023699999
 20
12.9195087493
 30
0.0
 11
9.627481023699999
 21
12.9195087493
 31
0.0
  0
LINE
  5
658
330
1B
100
AcDbEntity
  8
0
  6
Continuous
 62
     0
100
AcDbLine
 10
13.0117143475
 20
4.0891087493
 30
0.0
 11
13.3867143475
 21
4.2141087493
 31
0.0
  0
LINE
  5
659
330
1B
100
AcDbEntity
  8
0
  6
Continuous
 62
     0
100
AcDbLine
 10
4.327481023699999
 20
13.0391087493
 30
0.0
 11
9.627481023699999
 21
13.0391087493
 31
0.0
  0
LINE
  5
65A
330
1B
100
AcDbEntity
  8
0
  6
Continuous
 62
     0
100
AcDbLine
 10
17.8314869565
 20
3.539108749299999
 30
0.0
 11
17.9510869565
 21
3.539108749299999
 31
0.0
  0
LINE
  5
65B
330
1B
100
AcDbEntity
  8
0
  6
Continuous
 62
     0
100
AcDbLine
 10
17.8314869565
 20
3.689108749299999
 30
0.0
 11
17.9510869565
 21
3.689108749299999
 31
0.0
  0
LINE
  5
65C
330
1B
100
AcDbEntity
  8
0
  6
Continuous
 62
     0
100
AcDbLine
 10
17.8314869565
 20
4.073608749299999
 30
0.0
 11
17.7689869565
 21
4.073608749299999
 31
0.0
  0
LINE
  5
65D
330
1B
100
AcDbEntity
  8
0
  6
Continuous
 62
     0
100
AcDbLine
 10
17.7689869565
 20
4.0891087493
 30
0.0
 11
17.7389869565
 21
4.0891087493
 31
0.0
  0
LINE
  5
65E
330
1B
100
AcDbEntity
  8
0
  6
Continuous
 62
     0
100
AcDbLine
 10
17.7689869565
 20
4.2141087493
 30
0.0
 11
17.7389869565
 21
4.2141087493
 31
0.0
  0
LINE
  5
65F
330
1B
100
AcDbEntity
  8
0
  6
Continuous
 62
     0
100
AcDbLine
 10
17.4886460116
 20
4.220998513099999
 30
0.0
 11
17.6564869565
 21
4.220998513099999
 31
0.0
  0
LINE
  5
660
330
1B
100
AcDbEntity
  8
0
  6
Continuous
 62
     0
100
AcDbLine
 10
17.7189869565
 20
4.220998513099999
 30
0.0
 11
17.7389869565
 21
4.220998513099999
 31
0.0
  0
LINE
  5
661
330
1B
100
AcDbEntity
  8
0
  6
Continuous
 62
     0
100
AcDbLine
 10
17.7189869565
 20
4.314108749299999
 30
0.0
 11
17.6564869565
 21
4.314108749299999
 31
0.0
  0
LINE
  5
662
330
1B
100
AcDbEntity
  8
0
  6
Continuous
 62
     0
100
AcDbLine
 10
17.6564869565
 20
4.364108749299999
 30
0.0
 11
17.7189869565
 21
4.364108749299999
 31
0.0
  0
LINE
  5
663
330
1B
100
AcDbEntity
  8
0
  6
Continuous
 62
     0
100
AcDbLine
 10
17.4886460116
 20
4.457218985499999
 30
0.0
 11
17.6564869565
 21
4.457218985499999
 31
0.0
  0
LINE
  5
664
330
1B
100
AcDbEntity
  8
0
  6
Continuous
 62
     0
100
AcDbLine
 10
17.7189869565
 20
4.457218985499999
 30
0.0
 11
17.7389869565
 21
4.457218985499999
 31
0.0
  0
LINE
  5
665
330
1B
100
AcDbEntity
  8
0
  6
Continuous
 62
     0
100
AcDbLine
 10
17.7689869565
 20
4.4641087493
 30
0.0
 11
17.7389869565
 21
4.4641087493
 31
0.0
  0
LINE
  5
666
330
1B
100
AcDbEntity
  8
0
  6
Continuous
 62
     0
100
AcDbLine
 10
17.7689869565
 20
4.5891087493
 30
0.0
 11
17.7389869565
 21
4.5891087493
 31
0.0
  0
LINE
  5
667
330
1B
100
AcDbEntity
  8
0
  6
Continuous
 62
     0
100
AcDbLine
 10
17.8314869565
 20
4.604608749299999
 30
0.0
 11
17.7689869565
 21
4.604608749299999
 31
0.0
  0
LINE
  5
668
330
1B
100
AcDbEntity
  8
0
  6
Continuous
 62
     0
100
AcDbLine
 10
17.8095630667
 20
5.104531671
 30
0.0
 11
17.5989869565
 21
5.1045327561
 31
0.0
  0
LINE
  5
669
330
1B
100
AcDbEntity
  8
0
  6
Continuous
 62
     0
100
AcDbLine
 10
17.5989869565
 20
5.209132756099999
 30
0.0
 11
17.8095630667
 21
5.209131671
 31
0.0
  0
LINE
  5
66A
330
1B
100
AcDbEntity
  8
0
  6
Continuous
 62
     0
100
AcDbLine
 10
17.4643869565
 20
5.2391327561
 30
0.0
 11
17.5689869565
 21
5.2391327561
 31
0.0
  0
LINE
  5
66B
330
1B
100
AcDbEntity
  8
0
  6
Continuous
 62
     0
100
AcDbLine
 10
17.6314869565
 20
5.2641087493
 30
0.0
 11
17.5689869565
 21
5.2641087493
 31
0.0
  0
LINE
  5
66C
330
1B
100
AcDbEntity
  8
0
  6
Continuous
 62
     0
100
AcDbLine
 10
17.6314869565
 20
5.2658541229
 30
0.0
 11
17.8314869565
 21
5.2641087493
 31
0.0
  0
LINE
  5
66D
330
1B
100
AcDbEntity
  8
0
  6
Continuous
 62
     0
100
AcDbLine
 10
17.4786460116
 20
4.2309985131
 30
0.0
 11
17.4886460116
 21
4.220998513099999
 31
0.0
  0
LINE
  5
66E
330
1B
100
AcDbEntity
  8
0
  6
Continuous
 62
     0
100
AcDbLine
 10
17.4643869565
 20
5.719132756
 30
0.0
 11
17.5689869565
 21
5.719132756
 31
0.0
  0
LINE
  5
66F
330
1B
100
AcDbEntity
  8
0
  6
Continuous
 62
     0
100
AcDbLine
 10
17.7514869565
 20
5.776608749299999
 30
0.0
 11
17.6314869565
 21
5.776608749299999
 31
0.0
  0
LINE
  5
670
330
1B
100
AcDbEntity
  8
0
  6
Continuous
 62
     0
100
AcDbLine
 10
17.0259230467
 20
10.8641087493
 30
0.0
 11
16.9510869565
 21
10.8276087493
 31
0.0
  0
LINE
  5
671
330
1B
100
AcDbEntity
  8
0
  6
Continuous
 62
     0
100
AcDbLine
 10
17.4643869565
 20
5.839131671
 30
0.0
 11
17.5689869565
 21
5.839131671
 31
0.0
  0
LINE
  5
672
330
1B
100
AcDbEntity
  8
0
  6
Continuous
 62
     0
100
AcDbLine
 10
17.4714869565
 20
5.869108749299999
 30
0.0
 11
17.5689869565
 21
5.869108749299999
 31
0.0
  0
LINE
  5
673
330
1B
100
AcDbEntity
  8
0
  6
Continuous
 62
     0
100
AcDbLine
 10
17.7514869565
 20
5.901608749299999
 30
0.0
 11
17.6314869565
 21
5.901608749299999
 31
0.0
  0
LINE
  5
674
330
1B
100
AcDbEntity
  8
0
  6
Continuous
 62
     0
100
AcDbLine
 10
17.4714869565
 20
5.924108749299999
 30
0.0
 11
17.0614869565
 21
5.924108749299999
 31
0.0
  0
LINE
  5
675
330
1B
100
AcDbEntity
  8
0
  6
Continuous
 62
     0
100
AcDbLine
 10
17.6314869565
 20
6.1134978686
 30
0.0
 11
17.7014869565
 21
6.114108749299999
 31
0.0
  0
LINE
  5
676
330
1B
100
AcDbEntity
  8
0
  6
Continuous
 62
     0
100
AcDbLine
 10
17.4714869565
 20
6.164108749299999
 30
0.0
 11
17.0614869565
 21
6.164108749299999
 31
0.0
  0
LINE
  5
677
330
1B
100
AcDbEntity
  8
0
  6
Continuous
 62
     0
100
AcDbLine
 10
17.1314869565
 20
6.169108749299999
 30
0.0
 11
17.4714869565
 21
6.169108749299999
 31
0.0
  0
LINE
  5
678
330
1B
100
AcDbEntity
  8
0
  6
Continuous
 62
     0
100
AcDbLine
 10
17.6314869565
 20
6.256608749299999
 30
0.0
 11
17.7014869565
 21
6.256608749299999
 31
0.0
  0
LINE
  5
679
330
1B
100
AcDbEntity
  8
0
  6
Continuous
 62
     0
100
AcDbLine
 10
17.6314869565
 20
6.281608749299999
 30
0.0
 11
17.7014869565
 21
6.281608749299999
 31
0.0
  0
LINE
  5
67A
330
1B
100
AcDbEntity
  8
0
  6
Continuous
 62
     0
100
AcDbLine
 10
17.6314869565
 20
6.356608749299999
 30
0.0
 11
17.7014869565
 21
6.356608749299999
 31
0.0
  0
LINE
  5
67B
330
1B
100
AcDbEntity
  8
0
  6
Continuous
 62
     0
100
AcDbLine
 10
17.6314869565
 20
6.381608749299999
 30
0.0
 11
17.7014869565
 21
6.381608749299999
 31
0.0
  0
LINE
  5
67C
330
1B
100
AcDbEntity
  8
0
  6
Continuous
 62
     0
100
AcDbLine
 10
17.5134915856
 20
12.4136566336
 30
0.0
 11
17.6305692851
 21
12.6373553673
 31
0.0
  0
LINE
  5
67D
330
1B
100
AcDbEntity
  8
0
  6
Continuous
 62
     0
100
AcDbLine
 10
17.6314869565
 20
6.456608749299999
 30
0.0
 11
17.7014869565
 21
6.456608749299999
 31
0.0
  0
LINE
  5
67E
330
1B
100
AcDbEntity
  8
0
  6
Continuous
 62
     0
100
AcDbLine
 10
17.6314869565
 20
6.481608749299999
 30
0.0
 11
17.7014869565
 21
6.481608749299999
 31
0.0
  0
LINE
  5
67F
330
1B
100
AcDbEntity
  8
0
  6
Continuous
 62
     0
100
AcDbLine
 10
17.6314869565
 20
6.714108749299999
 30
0.0
 11
17.7014869565
 21
6.714108749299999
 31
0.0
  0
LINE
  5
680
330
1B
100
AcDbEntity
  8
0
  6
Continuous
 62
     0
100
AcDbLine
 10
17.5689869565
 20
6.727108749299999
 30
0.0
 11
17.4514869565
 21
6.727108749299999
 31
0.0
  0
LINE
  5
681
330
1B
100
AcDbEntity
  8
0
  6
Continuous
 62
     0
100
AcDbLine
 10
17.7014869565
 20
6.730608749299999
 30
0.0
 11
17.6314869565
 21
6.730608749299999
 31
0.0
  0
LINE
  5
682
330
1B
100
AcDbEntity
  8
0
  6
Continuous
 62
     0
100
AcDbLine
 10
17.4514869565
 20
6.730608749299999
 30
0.0
 11
17.5689869565
 21
6.730608749299999
 31
0.0
  0
LINE
  5
683
330
1B
100
AcDbEntity
  8
0
  6
Continuous
 62
     0
100
AcDbLine
 10
17.4514869565
 20
6.740608749299999
 30
0.0
 11
17.5689869565
 21
6.740608749299999
 31
0.0
  0
LINE
  5
684
330
1B
100
AcDbEntity
  8
0
  6
Continuous
 62
     0
100
AcDbLine
 10
17.4514869565
 20
6.797608749299999
 30
0.0
 11
17.5689869565
 21
6.797608749299999
 31
0.0
  0
LINE
  5
685
330
1B
100
AcDbEntity
  8
0
  6
Continuous
 62
     0
100
AcDbLine
 10
17.7014869565
 20
6.807608749299999
 30
0.0
 11
17.6314869565
 21
6.807608749299999
 31
0.0
  0
LINE
  5
686
330
1B
100
AcDbEntity
  8
0
  6
Continuous
 62
     0
100
AcDbLine
 10
17.4514869565
 20
6.807608749299999
 30
0.0
 11
17.5689869565
 21
6.807608749299999
 31
0.0
  0
LINE
  5
687
330
1B
100
AcDbEntity
  8
0
  6
Continuous
 62
     0
100
AcDbLine
 10
17.5689869565
 20
6.811108749299999
 30
0.0
 11
17.4514869565
 21
6.811108749299999
 31
0.0
  0
LINE
  5
688
330
1B
100
AcDbEntity
  8
0
  6
Continuous
 62
     0
100
AcDbLine
 10
17.6314869565
 20
6.824108749299999
 30
0.0
 11
17.7014869565
 21
6.824108749299999
 31
0.0
  0
LINE
  5
689
330
1B
100
AcDbEntity
  8
0
  6
Continuous
 62
     0
100
AcDbLine
 10
17.6314869565
 20
7.089108749299999
 30
0.0
 11
17.7014869565
 21
7.089108749299999
 31
0.0
  0
LINE
  5
68A
330
1B
100
AcDbEntity
  8
0
  6
Continuous
 62
     0
100
AcDbLine
 10
17.5689869565
 20
7.102108749299999
 30
0.0
 11
17.4514869565
 21
7.102108749299999
 31
0.0
  0
LINE
  5
68B
330
1B
100
AcDbEntity
  8
0
  6
Continuous
 62
     0
100
AcDbLine
 10
17.7014869565
 20
7.105608749299999
 30
0.0
 11
17.6314869565
 21
7.105608749299999
 31
0.0
  0
LINE
  5
68C
330
1B
100
AcDbEntity
  8
0
  6
Continuous
 62
     0
100
AcDbLine
 10
17.4514869565
 20
7.105608749299999
 30
0.0
 11
17.5689869565
 21
7.105608749299999
 31
0.0
  0
LINE
  5
68D
330
1B
100
AcDbEntity
  8
0
  6
Continuous
 62
     0
100
AcDbLine
 10
17.4514869565
 20
7.115608749299999
 30
0.0
 11
17.5689869565
 21
7.115608749299999
 31
0.0
  0
LINE
  5
68E
330
1B
100
AcDbEntity
  8
0
  6
Continuous
 62
     0
100
AcDbLine
 10
17.4514869565
 20
7.172608749299999
 30
0.0
 11
17.5689869565
 21
7.172608749299999
 31
0.0
  0
LINE
  5
68F
330
1B
100
AcDbEntity
  8
0
  6
Continuous
 62
     0
100
AcDbLine
 10
17.7014869565
 20
7.182608749299999
 30
0.0
 11
17.6314869565
 21
7.182608749299999
 31
0.0
  0
LINE
  5
690
330
1B
100
AcDbEntity
  8
0
  6
Continuous
 62
     0
100
AcDbLine
 10
17.4514869565
 20
7.182608749299999
 30
0.0
 11
17.5689869565
 21
7.182608749299999
 31
0.0
  0
LINE
  5
691
330
1B
100
AcDbEntity
  8
0
  6
Continuous
 62
     0
100
AcDbLine
 10
17.5689869565
 20
7.186108749299999
 30
0.0
 11
17.4514869565
 21
7.186108749299999
 31
0.0
  0
LINE
  5
692
330
1B
100
AcDbEntity
  8
0
  6
Continuous
 62
     0
100
AcDbLine
 10
17.6314869565
 20
7.199108749299999
 30
0.0
 11
17.7014869565
 21
7.199108749299999
 31
0.0
  0
LINE
  5
693
330
1B
100
AcDbEntity
  8
0
  6
Continuous
 62
     0
100
AcDbLine
 10
17.6314869565
 20
7.265505048099999
 30
0.0
 11
17.7014869565
 21
7.2648941674
 31
0.0
  0
LINE
  5
694
330
1B
100
AcDbEntity
  8
0
  6
Continuous
 62
     0
100
AcDbLine
 10
17.6314869565
 20
7.4034978686
 30
0.0
 11
17.7014869565
 21
7.404108749299999
 31
0.0
  0
LINE
  5
695
330
1B
100
AcDbEntity
  8
0
  6
Continuous
 62
     0
100
AcDbLine
 10
17.5689869565
 20
7.404108749299999
 30
0.0
 11
17.4514869565
 21
7.404108749299999
 31
0.0
  0
LINE
  5
696
330
1B
100
AcDbEntity
  8
0
  6
Continuous
 62
     0
100
AcDbLine
 10
17.5689869565
 20
7.489108749299999
 30
0.0
 11
17.4514869565
 21
7.489108749299999
 31
0.0
  0
LINE
  5
697
330
1B
100
AcDbEntity
  8
0
  6
Continuous
 62
     0
100
AcDbLine
 10
17.6314869565
 20
7.689108749299999
 30
0.0
 11
17.7014869565
 21
7.689108749299999
 31
0.0
  0
LINE
  5
698
330
1B
100
AcDbEntity
  8
0
  6
Continuous
 62
     0
100
AcDbLine
 10
16.9510869565
 20
10.6506087493
 30
0.0
 11
16.9510869565
 21
10.8276087493
 31
0.0
  0
LINE
  5
699
330
1B
100
AcDbEntity
  8
0
  6
Continuous
 62
     0
100
AcDbLine
 10
16.9510869565
 20
12.9195087493
 30
0.0
 11
16.9510869565
 21
13.0391087493
 31
0.0
  0
LINE
  5
69A
330
1B
100
AcDbEntity
  8
0
  6
Continuous
 62
     0
100
AcDbLine
 10
16.9714869565
 20
6.014108749299999
 30
0.0
 11
16.9714869565
 21
6.074108749299999
 31
0.0
  0
LINE
  5
69B
330
1B
100
AcDbEntity
  8
0
  6
Continuous
 62
     0
100
AcDbLine
 10
16.9714869565
 20
9.814108749299998
 30
0.0
 11
16.9714869565
 21
9.874108749299999
 31
0.0
  0
LINE
  5
69C
330
1B
100
AcDbEntity
  8
0
  6
Continuous
 62
     0
100
AcDbLine
 10
17.0259230467
 20
10.6141087493
 30
0.0
 11
17.0259230467
 21
10.8641087493
 31
0.0
  0
LINE
  5
69D
330
1B
100
AcDbEntity
  8
0
  6
Continuous
 62
     0
100
AcDbLine
 10
17.0614869565
 20
5.924108749299999
 30
0.0
 11
17.0614869565
 21
6.164108749299999
 31
0.0
  0
LINE
  5
69E
330
1B
100
AcDbEntity
  8
0
  6
Continuous
 62
     0
100
AcDbLine
 10
17.0614869565
 20
9.724108749299999
 30
0.0
 11
17.0614869565
 21
9.964108749299999
 31
0.0
  0
LINE
  5
69F
330
1B
100
AcDbEntity
  8
0
  6
Continuous
 62
     0
100
AcDbLine
 10
17.1010869565
 20
12.9195087493
 30
0.0
 11
17.1010869565
 21
13.0391087493
 31
0.0
  0
LINE
  5
6A0
330
1B
100
AcDbEntity
  8
0
  6
Continuous
 62
     0
100
AcDbLine
 10
17.1314869565
 20
9.7191087493
 30
0.0
 11
17.1314869565
 21
6.169108749299999
 31
0.0
  0
LINE
  5
6A1
330
1B
100
AcDbEntity
  8
0
  6
Continuous
 62
     0
100
AcDbLine
 10
17.1564869565
 20
9.7191087493
 30
0.0
 11
17.1564869565
 21
6.169108749299999
 31
0.0
  0
LINE
  5
6A2
330
1B
100
AcDbEntity
  8
0
  6
Continuous
 62
     0
100
AcDbLine
 10
17.5689869565
 20
7.702108749299999
 30
0.0
 11
17.4514869565
 21
7.702108749299999
 31
0.0
  0
LINE
  5
6A3
330
1B
100
AcDbEntity
  8
0
  6
Continuous
 62
     0
100
AcDbLine
 10
17.7014869565
 20
7.705608749299999
 30
0.0
 11
17.6314869565
 21
7.705608749299999
 31
0.0
  0
LINE
  5
6A4
330
1B
100
AcDbEntity
  8
0
  6
Continuous
 62
     0
100
AcDbLine
 10
17.4514869565
 20
7.705608749299999
 30
0.0
 11
17.5689869565
 21
7.705608749299999
 31
0.0
  0
LINE
  5
6A5
330
1B
100
AcDbEntity
  8
0
  6
Continuous
 62
     0
100
AcDbLine
 10
17.4514869565
 20
7.715608749299999
 30
0.0
 11
17.5689869565
 21
7.715608749299999
 31
0.0
  0
LINE
  5
6A6
330
1B
100
AcDbEntity
  8
0
  6
Continuous
 62
     0
100
AcDbLine
 10
17.4514869565
 20
7.772608749299999
 30
0.0
 11
17.5689869565
 21
7.772608749299999
 31
0.0
  0
LINE
  5
6A7
330
1B
100
AcDbEntity
  8
0
  6
Continuous
 62
     0
100
AcDbLine
 10
17.7014869565
 20
7.782608749299999
 30
0.0
 11
17.6314869565
 21
7.782608749299999
 31
0.0
  0
LINE
  5
6A8
330
1B
100
AcDbEntity
  8
0
  6
Continuous
 62
     0
100
AcDbLine
 10
17.4514869565
 20
7.782608749299999
 30
0.0
 11
17.5689869565
 21
7.782608749299999
 31
0.0
  0
LINE
  5
6A9
330
1B
100
AcDbEntity
  8
0
  6
Continuous
 62
     0
100
AcDbLine
 10
17.5689869565
 20
7.786108749299999
 30
0.0
 11
17.4514869565
 21
7.786108749299999
 31
0.0
  0
LINE
  5
6AA
330
1B
100
AcDbEntity
  8
0
  6
Continuous
 62
     0
100
AcDbLine
 10
17.6314869565
 20
7.799108749299999
 30
0.0
 11
17.7014869565
 21
7.799108749299999
 31
0.0
  0
LINE
  5
6AB
330
1B
100
AcDbEntity
  8
0
  6
Continuous
 62
     0
100
AcDbLine
 10
17.6314869565
 20
7.889108749299999
 30
0.0
 11
17.7014869565
 21
7.889108749299999
 31
0.0
  0
LINE
  5
6AC
330
1B
100
AcDbEntity
  8
0
  6
Continuous
 62
     0
100
AcDbLine
 10
17.5689869565
 20
7.902108749299999
 30
0.0
 11
17.4514869565
 21
7.902108749299999
 31
0.0
  0
LINE
  5
6AD
330
1B
100
AcDbEntity
  8
0
  6
Continuous
 62
     0
100
AcDbLine
 10
17.7014869565
 20
7.905608749299999
 30
0.0
 11
17.6314869565
 21
7.905608749299999
 31
0.0
  0
LINE
  5
6AE
330
1B
100
AcDbEntity
  8
0
  6
Continuous
 62
     0
100
AcDbLine
 10
17.4514869565
 20
7.905608749299999
 30
0.0
 11
17.5689869565
 21
7.905608749299999
 31
0.0
  0
LINE
  5
6AF
330
1B
100
AcDbEntity
  8
0
  6
Continuous
 62
     0
100
AcDbLine
 10
17.4514869565
 20
7.915608749299999
 30
0.0
 11
17.5689869565
 21
7.915608749299999
 31
0.0
  0
LINE
  5
6B0
330
1B
100
AcDbEntity
  8
0
  6
Continuous
 62
     0
100
AcDbLine
 10
17.4514869565
 20
7.972608749299999
 30
0.0
 11
17.5689869565
 21
7.972608749299999
 31
0.0
  0
LINE
  5
6B1
330
1B
100
AcDbEntity
  8
0
  6
Continuous
 62
     0
100
AcDbLine
 10
17.7014869565
 20
7.982608749299999
 30
0.0
 11
17.6314869565
 21
7.982608749299999
 31
0.0
  0
LINE
  5
6B2
330
1B
100
AcDbEntity
  8
0
  6
Continuous
 62
     0
100
AcDbLine
 10
17.4514869565
 20
7.982608749299999
 30
0.0
 11
17.5689869565
 21
7.982608749299999
 31
0.0
  0
LINE
  5
6B3
330
1B
100
AcDbEntity
  8
0
  6
Continuous
 62
     0
100
AcDbLine
 10
17.5689869565
 20
7.986108749299999
 30
0.0
 11
17.4514869565
 21
7.986108749299999
 31
0.0
  0
LINE
  5
6B4
330
1B
100
AcDbEntity
  8
0
  6
Continuous
 62
     0
100
AcDbLine
 10
17.6314869565
 20
7.999108749299999
 30
0.0
 11
17.7014869565
 21
7.999108749299999
 31
0.0
  0
LINE
  5
6B5
330
1B
100
AcDbEntity
  8
0
  6
Continuous
 62
     0
100
AcDbLine
 10
17.4410342006
 20
10.5044002579
 30
0.0
 11
17.4410342006
 21
10.5205258613
 31
0.0
  0
LINE
  5
6B6
330
1B
100
AcDbEntity
  8
0
  6
Continuous
 62
     0
100
AcDbLine
 10
17.4410342006
 20
10.5576916373
 30
0.0
 11
17.4410342006
 21
10.5738172407
 31
0.0
  0
LINE
  5
6B7
330
1B
100
AcDbEntity
  8
0
  6
Continuous
 62
     0
100
AcDbLine
 10
17.4514869565
 20
9.586108749299999
 30
0.0
 11
17.4514869565
 21
9.502108749299999
 31
0.0
  0
LINE
  5
6B8
330
1B
100
AcDbEntity
  8
0
  6
Continuous
 62
     0
100
AcDbLine
 10
17.4514869565
 20
9.386108749299999
 30
0.0
 11
17.4514869565
 21
9.3021087493
 31
0.0
  0
LINE
  5
6B9
330
1B
100
AcDbEntity
  8
0
  6
Continuous
 62
     0
100
AcDbLine
 10
17.4514869565
 20
8.7861087493
 30
0.0
 11
17.4514869565
 21
8.702108749299998
 31
0.0
  0
LINE
  5
6BA
330
1B
100
AcDbEntity
  8
0
  6
Continuous
 62
     0
100
AcDbLine
 10
17.4514869565
 20
8.586108749299999
 30
0.0
 11
17.4514869565
 21
8.502108749299999
 31
0.0
  0
LINE
  5
6BB
330
1B
100
AcDbEntity
  8
0
  6
Continuous
 62
     0
100
AcDbLine
 10
17.4514869565
 20
7.986108749299999
 30
0.0
 11
17.4514869565
 21
7.902108749299999
 31
0.0
  0
LINE
  5
6BC
330
1B
100
AcDbEntity
  8
0
  6
Continuous
 62
     0
100
AcDbLine
 10
17.4514869565
 20
7.786108749299999
 30
0.0
 11
17.4514869565
 21
7.702108749299999
 31
0.0
  0
LINE
  5
6BD
330
1B
100
AcDbEntity
  8
0
  6
Continuous
 62
     0
100
AcDbLine
 10
17.4514869565
 20
7.489108749299999
 30
0.0
 11
17.4514869565
 21
7.404108749299999
 31
0.0
  0
LINE
  5
6BE
330
1B
100
AcDbEntity
  8
0
  6
Continuous
 62
     0
100
AcDbLine
 10
17.4514869565
 20
7.186108749299999
 30
0.0
 11
17.4514869565
 21
7.102108749299999
 31
0.0
  0
LINE
  5
6BF
330
1B
100
AcDbEntity
  8
0
  6
Continuous
 62
     0
100
AcDbLine
 10
17.4514869565
 20
6.811108749299999
 30
0.0
 11
17.4514869565
 21
6.727108749299999
 31
0.0
  0
LINE
  5
6C0
330
1B
100
AcDbEntity
  8
0
  6
Continuous
 62
     0
100
AcDbLine
 10
17.4564869565
 20
11.4818051696
 30
0.0
 11
17.4564869565
 21
12.1818051696
 31
0.0
  0
LINE
  5
6C1
330
1B
100
AcDbEntity
  8
0
  6
Continuous
 62
     0
100
AcDbLine
 10
17.4643869565
 20
5.2391327561
 30
0.0
 11
17.4643869565
 21
5.839131668899999
 31
0.0
  0
LINE
  5
6C2
330
1B
100
AcDbEntity
  8
0
  6
Continuous
 62
     0
100
AcDbLine
 10
17.4714869565
 20
10.0191087493
 30
0.0
 11
17.4714869565
 21
9.7191087493
 31
0.0
  0
LINE
  5
6C3
330
1B
100
AcDbEntity
  8
0
  6
Continuous
 62
     0
100
AcDbLine
 10
17.4714869565
 20
6.169108749299999
 30
0.0
 11
17.4714869565
 21
5.869108749299999
 31
0.0
  0
LINE
  5
6C4
330
1B
100
AcDbEntity
  8
0
  6
Continuous
 62
     0
100
AcDbLine
 10
17.4786460116
 20
4.4472189855
 30
0.0
 11
17.4786460116
 21
4.2309985131
 31
0.0
  0
LINE
  5
6C5
330
1B
100
AcDbEntity
  8
0
  6
Continuous
 62
     0
100
AcDbLine
 10
17.4886460116
 20
4.457218985499999
 30
0.0
 11
17.4886460116
 21
4.220998513099999
 31
0.0
  0
LINE
  5
6C6
330
1B
100
AcDbEntity
  8
0
  6
Continuous
 62
     0
100
AcDbLine
 10
17.490246799
 20
10.3816284343
 30
0.0
 11
17.490246799
 21
10.6965890643
 31
0.0
  0
LINE
  5
6C7
330
1B
100
AcDbEntity
  8
0
  6
Continuous
 62
     0
100
AcDbLine
 10
17.6314869565
 20
8.040505048099999
 30
0.0
 11
17.7014869565
 21
8.039894167399999
 31
0.0
  0
LINE
  5
6C8
330
1B
100
AcDbEntity
  8
0
  6
Continuous
 62
     0
100
AcDbLine
 10
17.5014869565
 20
12.2766087493
 30
0.0
 11
17.5014869565
 21
12.4016087493
 31
0.0
  0
LINE
  5
6C9
330
1B
100
AcDbEntity
  8
0
  6
Continuous
 62
     0
100
AcDbLine
 10
17.5360869565
 20
12.9195087493
 30
0.0
 11
17.5360869565
 21
13.0391087493
 31
0.0
  0
LINE
  5
6CA
330
1B
100
AcDbEntity
  8
0
  6
Continuous
 62
     0
100
AcDbLine
 10
17.5650499486
 20
10.3816284343
 30
0.0
 11
17.5650499486
 21
10.6965890643
 31
0.0
  0
LINE
  5
6CB
330
1B
100
AcDbEntity
  8
0
  6
Continuous
 62
     0
100
AcDbLine
 10
17.5689869565
 20
5.2391327561
 30
0.0
 11
17.5689869565
 21
5.2641087493
 31
0.0
  0
LINE
  5
6CC
330
1B
100
AcDbEntity
  8
0
  6
Continuous
 62
     0
100
AcDbLine
 10
17.5689869565
 20
5.2641087493
 30
0.0
 11
17.5689869565
 21
11.0141087493
 31
0.0
  0
LINE
  5
6CD
330
1B
100
AcDbEntity
  8
0
  6
Continuous
 62
     0
100
AcDbLine
 10
17.5989869565
 20
5.1045327561
 30
0.0
 11
17.5989869565
 21
5.209132756099999
 31
0.0
  0
LINE
  5
6CE
330
1B
100
AcDbEntity
  8
0
  6
Continuous
 62
     0
100
AcDbLine
 10
17.6314869565
 20
5.2641087493
 30
0.0
 11
17.6314869565
 21
11.0391087493
 31
0.0
  0
LINE
  5
6CF
330
1B
100
AcDbEntity
  8
0
  6
Continuous
 62
     0
100
AcDbLine
 10
17.6361263266
 20
8.469128434299999
 30
0.0
 11
17.6361263266
 21
8.489108749299999
 31
0.0
  0
LINE
  5
6D0
330
1B
100
AcDbEntity
  8
0
  6
Continuous
 62
     0
100
AcDbLine
 10
17.6361263266
 20
8.5056087493
 30
0.0
 11
17.6361263266
 21
8.5826087493
 31
0.0
  0
LINE
  5
6D1
330
1B
100
AcDbEntity
  8
0
  6
Continuous
 62
     0
100
AcDbLine
 10
17.6361263266
 20
8.599108749299999
 30
0.0
 11
17.6361263266
 21
8.689108749299998
 31
0.0
  0
LINE
  5
6D2
330
1B
100
AcDbEntity
  8
0
  6
Continuous
 62
     0
100
AcDbLine
 10
17.6361263266
 20
8.705608749299999
 30
0.0
 11
17.6361263266
 21
8.782608749299999
 31
0.0
  0
LINE
  5
6D3
330
1B
100
AcDbEntity
  8
0
  6
Continuous
 62
     0
100
AcDbLine
 10
17.6564869565
 20
4.4641087493
 30
0.0
 11
17.6564869565
 21
4.364108749299999
 31
0.0
  0
LINE
  5
6D4
330
1B
100
AcDbEntity
  8
0
  6
Continuous
 62
     0
100
AcDbLine
 10
17.6564869565
 20
4.314108749299999
 30
0.0
 11
17.6564869565
 21
4.2141087493
 31
0.0
  0
LINE
  5
6D5
330
1B
100
AcDbEntity
  8
0
  6
Continuous
 62
     0
100
AcDbLine
 10
17.6860869565
 20
12.9195087493
 30
0.0
 11
17.6860869565
 21
13.0391087493
 31
0.0
  0
LINE
  5
6D6
330
1B
100
AcDbEntity
  8
0
  6
Continuous
 62
     0
100
AcDbLine
 10
17.6895630667
 20
5.1045327561
 30
0.0
 11
17.6895630667
 21
5.209132756099999
 31
0.0
  0
LINE
  5
6D7
330
1B
100
AcDbEntity
  8
0
  6
Continuous
 62
     0
100
AcDbLine
 10
17.7014869565
 20
9.849108749299999
 30
0.0
 11
17.7014869565
 21
9.213323331199999
 31
0.0
  0
LINE
  5
6D8
330
1B
100
AcDbEntity
  8
0
  6
Continuous
 62
     0
100
AcDbLine
 10
17.7014869565
 20
8.039894167399999
 30
0.0
 11
17.7014869565
 21
7.404108749299999
 31
0.0
  0
LINE
  5
6D9
330
1B
100
AcDbEntity
  8
0
  6
Continuous
 62
     0
100
AcDbLine
 10
17.7014869565
 20
6.114108749299999
 30
0.0
 11
17.7014869565
 21
7.2648941674
 31
0.0
  0
LINE
  5
6DA
330
1B
100
AcDbEntity
  8
0
  6
Continuous
 62
     0
100
AcDbLine
 10
17.7014869565
 20
8.4133233312
 30
0.0
 11
17.7014869565
 21
8.839108749299999
 31
0.0
  0
LINE
  5
6DB
330
1B
100
AcDbEntity
  8
0
  6
Continuous
 62
     0
100
AcDbLine
 10
17.7189869565
 20
4.2141087493
 30
0.0
 11
17.7189869565
 21
4.314108749299999
 31
0.0
  0
LINE
  5
6DC
330
1B
100
AcDbEntity
  8
0
  6
Continuous
 62
     0
100
AcDbLine
 10
17.7189869565
 20
4.364108749299999
 30
0.0
 11
17.7189869565
 21
4.4641087493
 31
0.0
  0
LINE
  5
6DD
330
1B
100
AcDbEntity
  8
0
  6
Continuous
 62
     0
100
AcDbLine
 10
17.7389869565
 20
4.0891087493
 30
0.0
 11
17.7389869565
 21
4.1270880835
 31
0.0
  0
LINE
  5
6DE
330
1B
100
AcDbEntity
  8
0
  6
Continuous
 62
     0
100
AcDbLine
 10
17.7389869565
 20
4.1897866605
 30
0.0
 11
17.7389869565
 21
4.4884308381
 31
0.0
  0
LINE
  5
6DF
330
1B
100
AcDbEntity
  8
0
  6
Continuous
 62
     0
100
AcDbLine
 10
17.7389869565
 20
4.5511294151
 30
0.0
 11
17.7389869565
 21
4.5891087493
 31
0.0
  0
LINE
  5
6E0
330
1B
100
AcDbEntity
  8
0
  6
Continuous
 62
     0
100
AcDbLine
 10
17.7514869565
 20
12.6384105999
 30
0.0
 11
17.7514869565
 21
5.264806898699999
 31
0.0
  0
LINE
  5
6E1
330
1B
100
AcDbEntity
  8
0
  6
Continuous
 62
     0
100
AcDbLine
 10
17.7689869565
 20
4.073609441499999
 30
0.0
 11
17.7689869565
 21
4.6046080571
 31
0.0
  0
LINE
  5
6E2
330
1B
100
AcDbEntity
  8
0
  6
Continuous
 62
     0
100
AcDbLine
 10
17.7865869565
 20
13.0391087493
 30
0.0
 11
17.7865869565
 21
12.9195087493
 31
0.0
  0
LINE
  5
6E3
330
1B
100
AcDbEntity
  8
0
  6
Continuous
 62
     0
100
AcDbLine
 10
17.8095630667
 20
5.104531671
 30
0.0
 11
17.8095630667
 21
5.209131671
 31
0.0
  0
LINE
  5
6E4
330
1B
100
AcDbEntity
  8
0
  6
Continuous
 62
     0
100
AcDbLine
 10
17.6314869565
 20
8.412712450499999
 30
0.0
 11
17.7014869565
 21
8.4133233312
 31
0.0
  0
LINE
  5
6E5
330
1B
100
AcDbEntity
  8
0
  6
Continuous
 62
     0
100
AcDbLine
 10
17.7014869565
 20
8.469128434299999
 30
0.0
 11
17.6361263266
 21
8.469128434299999
 31
0.0
  0
LINE
  5
6E6
330
1B
100
AcDbEntity
  8
0
  6
Continuous
 62
     0
100
AcDbLine
 10
17.6314869565
 20
8.489108749299999
 30
0.0
 11
17.7014869565
 21
8.489108749299999
 31
0.0
  0
LINE
  5
6E7
330
1B
100
AcDbEntity
  8
0
  6
Continuous
 62
     0
100
AcDbLine
 10
17.5689869565
 20
8.502108749299999
 30
0.0
 11
17.4514869565
 21
8.502108749299999
 31
0.0
  0
LINE
  5
6E8
330
1B
100
AcDbEntity
  8
0
  6
Continuous
 62
     0
100
AcDbLine
 10
17.7014869565
 20
8.5056087493
 30
0.0
 11
17.6314869565
 21
8.5056087493
 31
0.0
  0
LINE
  5
6E9
330
1B
100
AcDbEntity
  8
0
  6
Continuous
 62
     0
100
AcDbLine
 10
17.4514869565
 20
8.5056087493
 30
0.0
 11
17.5689869565
 21
8.5056087493
 31
0.0
  0
LINE
  5
6EA
330
1B
100
AcDbEntity
  8
0
  6
Continuous
 62
     0
100
AcDbLine
 10
17.4514869565
 20
8.5156087493
 30
0.0
 11
17.5689869565
 21
8.5156087493
 31
0.0
  0
LINE
  5
6EB
330
1B
100
AcDbEntity
  8
0
  6
Continuous
 62
     0
100
AcDbLine
 10
17.4514869565
 20
8.572608749299998
 30
0.0
 11
17.5689869565
 21
8.572608749299998
 31
0.0
  0
LINE
  5
6EC
330
1B
100
AcDbEntity
  8
0
  6
Continuous
 62
     0
100
AcDbLine
 10
17.7014869565
 20
8.5826087493
 30
0.0
 11
17.6314869565
 21
8.5826087493
 31
0.0
  0
LINE
  5
6ED
330
1B
100
AcDbEntity
  8
0
  6
Continuous
 62
     0
100
AcDbLine
 10
17.4514869565
 20
8.5826087493
 30
0.0
 11
17.5689869565
 21
8.5826087493
 31
0.0
  0
LINE
  5
6EE
330
1B
100
AcDbEntity
  8
0
  6
Continuous
 62
     0
100
AcDbLine
 10
17.5689869565
 20
8.586108749299999
 30
0.0
 11
17.4514869565
 21
8.586108749299999
 31
0.0
  0
LINE
  5
6EF
330
1B
100
AcDbEntity
  8
0
  6
Continuous
 62
     0
100
AcDbLine
 10
17.6314869565
 20
8.599108749299999
 30
0.0
 11
17.7014869565
 21
8.599108749299999
 31
0.0
  0
LINE
  5
6F0
330
1B
100
AcDbEntity
  8
0
  6
Continuous
 62
     0
100
AcDbLine
 10
17.8314869565
 20
3.539108749299999
 30
0.0
 11
17.8314869565
 21
12.8746087493
 31
0.0
  0
LINE
  5
6F1
330
1B
100
AcDbEntity
  8
0
  6
Continuous
 62
     0
100
AcDbLine
 10
17.9510869565
 20
12.8746087493
 30
0.0
 11
17.9510869565
 21
3.539108749299999
 31
0.0
  0
LINE
  5
6F2
330
1B
100
AcDbEntity
  8
0
  6
Continuous
 62
     0
100
AcDbLine
 10
17.6314869565
 20
8.689108749299998
 30
0.0
 11
17.7014869565
 21
8.689108749299998
 31
0.0
  0
LINE
  5
6F3
330
1B
100
AcDbEntity
  8
0
  6
Continuous
 62
     0
100
AcDbLine
 10
17.5689869565
 20
8.702108749299998
 30
0.0
 11
17.4514869565
 21
8.702108749299998
 31
0.0
  0
LINE
  5
6F4
330
1B
100
AcDbEntity
  8
0
  6
Continuous
 62
     0
100
AcDbLine
 10
17.7014869565
 20
8.705608749299999
 30
0.0
 11
17.6314869565
 21
8.705608749299999
 31
0.0
  0
LINE
  5
6F5
330
1B
100
AcDbEntity
  8
0
  6
Continuous
 62
     0
100
AcDbLine
 10
17.4514869565
 20
8.705608749299999
 30
0.0
 11
17.5689869565
 21
8.705608749299999
 31
0.0
  0
LINE
  5
6F6
330
1B
100
AcDbEntity
  8
0
  6
Continuous
 62
     0
100
AcDbLine
 10
17.4514869565
 20
8.715608749299999
 30
0.0
 11
17.5689869565
 21
8.715608749299999
 31
0.0
  0
LINE
  5
6F7
330
1B
100
AcDbEntity
  8
0
  6
Continuous
 62
     0
100
AcDbLine
 10
17.4514869565
 20
8.772608749299999
 30
0.0
 11
17.5689869565
 21
8.772608749299999
 31
0.0
  0
LINE
  5
6F8
330
1B
100
AcDbEntity
  8
0
  6
Continuous
 62
     0
100
AcDbLine
 10
17.7014869565
 20
8.782608749299999
 30
0.0
 11
17.6314869565
 21
8.782608749299999
 31
0.0
  0
LINE
  5
6F9
330
1B
100
AcDbEntity
  8
0
  6
Continuous
 62
     0
100
AcDbLine
 10
17.4514869565
 20
8.782608749299999
 30
0.0
 11
17.5689869565
 21
8.782608749299999
 31
0.0
  0
LINE
  5
6FA
330
1B
100
AcDbEntity
  8
0
  6
Continuous
 62
     0
100
AcDbLine
 10
17.5689869565
 20
8.7861087493
 30
0.0
 11
17.4514869565
 21
8.7861087493
 31
0.0
  0
LINE
  5
6FB
330
1B
100
AcDbEntity
  8
0
  6
Continuous
 62
     0
100
AcDbLine
 10
17.6314869565
 20
8.7991087493
 30
0.0
 11
17.7014869565
 21
8.7991087493
 31
0.0
  0
LINE
  5
6FC
330
1B
100
AcDbEntity
  8
0
  6
Continuous
 62
     0
100
AcDbLine
 10
17.6314869565
 20
8.839719629999999
 30
0.0
 11
17.7014869565
 21
8.839108749299999
 31
0.0
  0
LINE
  5
6FD
330
1B
100
AcDbEntity
  8
0
  6
Continuous
 62
     0
100
AcDbLine
 10
17.6314869565
 20
9.212712450499999
 30
0.0
 11
17.7014869565
 21
9.213323331199999
 31
0.0
  0
LINE
  5
6FE
330
1B
100
AcDbEntity
  8
0
  6
Continuous
 62
     0
100
AcDbLine
 10
17.568819756
 20
11.0396556377
 30
0.0
 11
17.4783345785
 21
11.3356193172
 31
0.0
  0
LINE
  5
6FF
330
1B
100
AcDbEntity
  8
0
  6
Continuous
 62
     0
100
AcDbLine
 10
17.6314869565
 20
9.289108749299998
 30
0.0
 11
17.7014869565
 21
9.289108749299998
 31
0.0
  0
LINE
  5
700
330
1B
100
AcDbEntity
  8
0
  6
Continuous
 62
     0
100
AcDbLine
 10
17.5689869565
 20
9.3021087493
 30
0.0
 11
17.4514869565
 21
9.3021087493
 31
0.0
  0
LINE
  5
701
330
1B
100
AcDbEntity
  8
0
  6
Continuous
 62
     0
100
AcDbLine
 10
17.7014869565
 20
9.305608749299999
 30
0.0
 11
17.6314869565
 21
9.305608749299999
 31
0.0
  0
LINE
  5
702
330
1B
100
AcDbEntity
  8
0
  6
Continuous
 62
     0
100
AcDbLine
 10
17.4514869565
 20
9.305608749299999
 30
0.0
 11
17.5689869565
 21
9.305608749299999
 31
0.0
  0
LINE
  5
703
330
1B
100
AcDbEntity
  8
0
  6
Continuous
 62
     0
100
AcDbLine
 10
17.4514869565
 20
9.315608749299999
 30
0.0
 11
17.5689869565
 21
9.315608749299999
 31
0.0
  0
LINE
  5
704
330
1B
100
AcDbEntity
  8
0
  6
Continuous
 62
     0
100
AcDbLine
 10
17.4514869565
 20
9.372608749299999
 30
0.0
 11
17.5689869565
 21
9.372608749299999
 31
0.0
  0
LINE
  5
705
330
1B
100
AcDbEntity
  8
0
  6
Continuous
 62
     0
100
AcDbLine
 10
17.7014869565
 20
9.382608749299999
 30
0.0
 11
17.6314869565
 21
9.382608749299999
 31
0.0
  0
LINE
  5
706
330
1B
100
AcDbEntity
  8
0
  6
Continuous
 62
     0
100
AcDbLine
 10
17.4514869565
 20
9.382608749299999
 30
0.0
 11
17.5689869565
 21
9.382608749299999
 31
0.0
  0
LINE
  5
707
330
1B
100
AcDbEntity
  8
0
  6
Continuous
 62
     0
100
AcDbLine
 10
17.5689869565
 20
9.386108749299999
 30
0.0
 11
17.4514869565
 21
9.386108749299999
 31
0.0
  0
LINE
  5
708
330
1B
100
AcDbEntity
  8
0
  6
Continuous
 62
     0
100
AcDbLine
 10
17.6314869565
 20
9.399108749299999
 30
0.0
 11
17.7014869565
 21
9.399108749299999
 31
0.0
  0
LINE
  5
709
330
1B
100
AcDbEntity
  8
0
  6
Continuous
 62
     0
100
AcDbLine
 10
17.6314869565
 20
9.489108749299999
 30
0.0
 11
17.7014869565
 21
9.489108749299999
 31
0.0
  0
LINE
  5
70A
330
1B
100
AcDbEntity
  8
0
  6
Continuous
 62
     0
100
AcDbLine
 10
17.5689869565
 20
9.502108749299999
 30
0.0
 11
17.4514869565
 21
9.502108749299999
 31
0.0
  0
LINE
  5
70B
330
1B
100
AcDbEntity
  8
0
  6
Continuous
 62
     0
100
AcDbLine
 10
17.7014869565
 20
9.5056087493
 30
0.0
 11
17.6314869565
 21
9.5056087493
 31
0.0
  0
LINE
  5
70C
330
1B
100
AcDbEntity
  8
0
  6
Continuous
 62
     0
100
AcDbLine
 10
17.4514869565
 20
9.5056087493
 30
0.0
 11
17.5689869565
 21
9.5056087493
 31
0.0
  0
LINE
  5
70D
330
1B
100
AcDbEntity
  8
0
  6
Continuous
 62
     0
100
AcDbLine
 10
17.4514869565
 20
9.5156087493
 30
0.0
 11
17.5689869565
 21
9.5156087493
 31
0.0
  0
LINE
  5
70E
330
1B
100
AcDbEntity
  8
0
  6
Continuous
 62
     0
100
AcDbLine
 10
17.4514869565
 20
9.572608749299998
 30
0.0
 11
17.5689869565
 21
9.572608749299998
 31
0.0
  0
LINE
  5
70F
330
1B
100
AcDbEntity
  8
0
  6
Continuous
 62
     0
100
AcDbLine
 10
17.7014869565
 20
9.5826087493
 30
0.0
 11
17.6314869565
 21
9.5826087493
 31
0.0
  0
LINE
  5
710
330
1B
100
AcDbEntity
  8
0
  6
Continuous
 62
     0
100
AcDbLine
 10
17.4514869565
 20
9.5826087493
 30
0.0
 11
17.5689869565
 21
9.5826087493
 31
0.0
  0
LINE
  5
711
330
1B
100
AcDbEntity
  8
0
  6
Continuous
 62
     0
100
AcDbLine
 10
17.5689869565
 20
9.586108749299999
 30
0.0
 11
17.4514869565
 21
9.586108749299999
 31
0.0
  0
LINE
  5
712
330
1B
100
AcDbEntity
  8
0
  6
Continuous
 62
     0
100
AcDbLine
 10
17.6314869565
 20
9.599108749299999
 30
0.0
 11
17.7014869565
 21
9.599108749299999
 31
0.0
  0
LINE
  5
713
330
1B
100
AcDbEntity
  8
0
  6
Continuous
 62
     0
100
AcDbLine
 10
17.1314869565
 20
9.7191087493
 30
0.0
 11
17.4714869565
 21
9.7191087493
 31
0.0
  0
LINE
  5
714
330
1B
100
AcDbEntity
  8
0
  6
Continuous
 62
     0
100
AcDbLine
 10
17.4714869565
 20
9.724108749299999
 30
0.0
 11
17.0614869565
 21
9.724108749299999
 31
0.0
  0
LINE
  5
715
330
1B
100
AcDbEntity
  8
0
  6
Continuous
 62
     0
100
AcDbLine
 10
17.6314869565
 20
9.825108749299999
 30
0.0
 11
17.7014869565
 21
9.825108749299999
 31
0.0
  0
LINE
  5
716
330
1B
100
AcDbEntity
  8
0
  6
Continuous
 62
     0
100
AcDbLine
 10
17.6314869565
 20
9.849719629999999
 30
0.0
 11
17.7014869565
 21
9.849108749299999
 31
0.0
  0
LINE
  5
717
330
1B
100
AcDbEntity
  8
0
  6
Continuous
 62
     0
100
AcDbLine
 10
17.4714869565
 20
9.964108749299999
 30
0.0
 11
17.0614869565
 21
9.964108749299999
 31
0.0
  0
LINE
  5
718
330
1B
100
AcDbEntity
  8
0
  6
Continuous
 62
     0
100
AcDbLine
 10
17.4714869565
 20
10.0191087493
 30
0.0
 11
17.5689869565
 21
10.0191087493
 31
0.0
  0
LINE
  5
719
330
1B
100
AcDbEntity
  8
0
  6
Continuous
 62
     0
100
AcDbLine
 10
17.7514869565
 20
10.0266087493
 30
0.0
 11
17.6314869565
 21
10.0266087493
 31
0.0
  0
LINE
  5
71A
330
1B
100
AcDbEntity
  8
0
  6
Continuous
 62
     0
100
AcDbLine
 10
17.7514869565
 20
10.1516087493
 30
0.0
 11
17.6314869565
 21
10.1516087493
 31
0.0
  0
LINE
  5
71B
330
1B
100
AcDbEntity
  8
0
  6
Continuous
 62
     0
100
AcDbLine
 10
17.0259230467
 20
10.6141087493
 30
0.0
 11
16.9510869565
 21
10.6506087493
 31
0.0
  0
LINE
  5
71C
330
1B
100
AcDbEntity
  8
0
  6
Continuous
 62
     0
100
AcDbLine
 10
17.5650499486
 20
10.3816284343
 30
0.0
 11
17.490246799
 21
10.3816284343
 31
0.0
  0
LINE
  5
71D
330
1B
100
AcDbEntity
  8
0
  6
Continuous
 62
     0
100
AcDbLine
 10
17.4497081797
 20
10.4485575682
 30
0.0
 11
17.449103965
 21
10.4485575682
 31
0.0
  0
LINE
  5
71E
330
1B
100
AcDbEntity
  8
0
  6
Continuous
 62
     0
100
AcDbLine
 10
17.4497081797
 20
10.5208016627
 30
0.0
 11
17.4410578157
 21
10.5208016627
 31
0.0
  0
LINE
  5
71F
330
1B
100
AcDbEntity
  8
0
  6
Continuous
 62
     0
100
AcDbLine
 10
17.4410578157
 20
10.5574158359
 30
0.0
 11
17.4497081797
 21
10.5574158359
 31
0.0
  0
LINE
  5
720
330
1B
100
AcDbEntity
  8
0
  6
Continuous
 62
     0
100
AcDbLine
 10
17.4454258556
 20
10.6141087493
 30
0.0
 11
17.0259230467
 21
10.6141087493
 31
0.0
  0
LINE
  5
721
330
1B
100
AcDbEntity
  8
0
  6
Continuous
 62
     0
100
AcDbLine
 10
17.449103965
 20
10.6296599304
 30
0.0
 11
17.4497081797
 21
10.6296599304
 31
0.0
  0
LINE
  5
722
330
1B
100
AcDbEntity
  8
0
  6
Continuous
 62
     0
100
AcDbLine
 10
17.5650499486
 20
10.6965890643
 30
0.0
 11
17.490246799
 21
10.6965890643
 31
0.0
  0
LINE
  5
723
330
1B
100
AcDbEntity
  8
0
  6
Continuous
 62
     0
100
AcDbLine
 10
17.5689869565
 20
10.8641087493
 30
0.0
 11
17.0259230467
 21
10.8641087493
 31
0.0
  0
LINE
  5
724
330
1B
100
AcDbEntity
  8
0
  6
Continuous
 62
     0
100
AcDbLine
 10
17.4786460116
 20
4.4472189855
 30
0.0
 11
17.4886460116
 21
4.457218985499999
 31
0.0
  0
LINE
  5
725
330
1B
100
AcDbEntity
  8
0
  6
Continuous
 62
     0
100
AcDbLine
 10
17.6314869565
 20
11.0141087493
 30
0.0
 11
17.5689869565
 21
11.0141087493
 31
0.0
  0
LINE
  5
726
330
1B
100
AcDbEntity
  8
0
  6
Continuous
 62
     0
100
AcDbLine
 10
17.6314869565
 20
11.0391087493
 30
0.0
 11
17.568819756
 21
11.0396556377
 31
0.0
  0
LINE
  5
727
330
1B
100
AcDbEntity
  8
0
  6
Continuous
 62
     0
100
AcDbLine
 10
17.7514869565
 20
12.2766087493
 30
0.0
 11
17.5014869565
 21
12.2766087493
 31
0.0
  0
LINE
  5
728
330
1B
100
AcDbEntity
  8
0
  6
Continuous
 62
     0
100
AcDbLine
 10
17.7514869565
 20
12.4016087493
 30
0.0
 11
17.5014869565
 21
12.4016087493
 31
0.0
  0
LINE
  5
729
330
1B
100
AcDbEntity
  8
0
  6
Continuous
 62
     0
100
AcDbLine
 10
17.8314869565
 20
12.6391087493
 30
0.0
 11
17.6305692851
 21
12.6373553673
 31
0.0
  0
LINE
  5
72A
330
1B
100
AcDbEntity
  8
0
  6
Continuous
 62
     0
100
AcDbLine
 10
17.9510869565
 20
12.8746087493
 30
0.0
 11
17.8314869565
 21
12.8746087493
 31
0.0
  0
LINE
  5
72B
330
1B
100
AcDbEntity
  8
0
  6
Continuous
 62
     0
100
AcDbLine
 10
16.9510869565
 20
12.9195087493
 30
0.0
 11
17.7865869565
 21
12.9195087493
 31
0.0
  0
LINE
  5
72C
330
1B
100
AcDbEntity
  8
0
  6
Continuous
 62
     0
100
AcDbLine
 10
16.9510869565
 20
13.0391087493
 30
0.0
 11
17.7865869565
 21
13.0391087493
 31
0.0
  0
CIRCLE
  5
72D
330
1B
100
AcDbEntity
  8
0
  6
Continuous
 62
     0
100
AcDbCircle
 10
8.914981611299999
 20
5.539128234999999
 30
0.0
 40
0.1476377953
  0
ARC
  5
72E
330
1B
100
AcDbEntity
  8
0
  6
Continuous
 62
     0
100
AcDbCircle
 10
8.9399816113
 20
5.514128235
 30
0.0
 40
0.0103993176
100
AcDbArc
 50
90.0
 51
180.0
  0
ARC
  5
72F
330
1B
100
AcDbEntity
  8
0
  6
Continuous
 62
     0
100
AcDbCircle
 10
8.9399816113
 20
5.514128235
 30
0.0
 40
0.0054183441
100
AcDbArc
 50
90.0
 51
180.0
  0
ARC
  5
730
330
1B
100
AcDbEntity
  8
0
  6
Continuous
 62
     0
100
AcDbCircle
 10
8.9199816113
 20
5.449128234999999
 30
0.0
 40
0.0145816559
100
AcDbArc
 50
270.0
 51
360.0
  0
ARC
  5
731
330
1B
100
AcDbEntity
  8
0
  6
Continuous
 62
     0
100
AcDbCircle
 10
8.9199816113
 20
5.449128234999999
 30
0.0
 40
0.0096006824
100
AcDbArc
 50
270.0
 51
360.0
  0
ARC
  5
732
330
1B
100
AcDbEntity
  8
0
  6
Continuous
 62
     0
100
AcDbCircle
 10
9.004981611299999
 20
5.534128234999999
 30
0.0
 40
0.0065004535
100
AcDbArc
 50
270.0
 51
360.0
  0
ARC
  5
733
330
1B
100
AcDbEntity
  8
0
  6
Continuous
 62
     0
100
AcDbCircle
 10
9.004981611299999
 20
5.544128234999999
 30
0.0
 40
0.0065004535
100
AcDbArc
 50
0.0
 51
90.0
  0
ARC
  5
734
330
1B
100
AcDbEntity
  8
0
  6
Continuous
 62
     0
100
AcDbCircle
 10
8.9199816113
 20
5.629128234999999
 30
0.0
 40
0.0065004535
100
AcDbArc
 50
0.0
 51
90.0
  0
ARC
  5
735
330
1B
100
AcDbEntity
  8
0
  6
Continuous
 62
     0
100
AcDbCircle
 10
8.909981611299999
 20
5.629128234999999
 30
0.0
 40
0.0065004535
100
AcDbArc
 50
90.0
 51
180.0
  0
ARC
  5
736
330
1B
100
AcDbEntity
  8
0
  6
Continuous
 62
     0
100
AcDbCircle
 10
8.8249816113
 20
5.544128234999999
 30
0.0
 40
0.0065004535
100
AcDbArc
 50
90.0
 51
180.0
  0
ARC
  5
737
330
1B
100
AcDbEntity
  8
0
  6
Continuous
 62
     0
100
AcDbCircle
 10
8.8249816113
 20
5.534128234999999
 30
0.0
 40
0.0065004535
100
AcDbArc
 50
180.0
 51
270.0
  0
ARC
  5
738
330
1B
100
AcDbEntity
  8
0
  6
Continuous
 62
     0
100
AcDbCircle
 10
8.909981611299999
 20
5.449128234999999
 30
0.0
 40
0.0065004535
100
AcDbArc
 50
180.0
 51
270.0
  0
ARC
  5
739
330
1B
100
AcDbEntity
  8
0
  6
Continuous
 62
     0
100
AcDbCircle
 10
8.9199816113
 20
5.449128234999999
 30
0.0
 40
0.0065004535
100
AcDbArc
 50
270.0
 51
360.0
  0
ARC
  5
73A
330
1B
100
AcDbEntity
  8
0
  6
Continuous
 62
     0
100
AcDbCircle
 10
8.9399816113
 20
5.514128235
 30
0.0
 40
0.0134995465
100
AcDbArc
 50
90.0
 51
180.0
  0
ARC
  5
73B
330
1B
100
AcDbEntity
  8
0
  6
Continuous
 62
     0
100
AcDbCircle
 10
8.9399816113
 20
5.564128235
 30
0.0
 40
0.0134995465
100
AcDbArc
 50
180.0
 51
270.0
  0
ARC
  5
73C
330
1B
100
AcDbEntity
  8
0
  6
Continuous
 62
     0
100
AcDbCircle
 10
8.889981611299999
 20
5.564128235
 30
0.0
 40
0.0134995465
100
AcDbArc
 50
270.0
 51
360.0
  0
ARC
  5
73D
330
1B
100
AcDbEntity
  8
0
  6
Continuous
 62
     0
100
AcDbCircle
 10
8.889981611299999
 20
5.514128235
 30
0.0
 40
0.0134995465
100
AcDbArc
 50
0.0
 51
90.0
  0
ARC
  5
73E
330
1B
100
AcDbEntity
  8
0
  6
Continuous
 62
     0
100
AcDbCircle
 10
9.004981611299999
 20
5.534128234999999
 30
0.0
 40
0.0096006824
100
AcDbArc
 50
270.0
 51
360.0
  0
ARC
  5
73F
330
1B
100
AcDbEntity
  8
0
  6
Continuous
 62
     0
100
AcDbCircle
 10
9.004981611299999
 20
5.534128234999999
 30
0.0
 40
0.0145816559
100
AcDbArc
 50
270.0
 51
360.0
  0
ARC
  5
740
330
1B
100
AcDbEntity
  8
0
  6
Continuous
 62
     0
100
AcDbCircle
 10
9.004981611299999
 20
5.544128234999999
 30
0.0
 40
0.0096006824
100
AcDbArc
 50
0.0
 51
90.0
  0
ARC
  5
741
330
1B
100
AcDbEntity
  8
0
  6
Continuous
 62
     0
100
AcDbCircle
 10
9.004981611299999
 20
5.544128234999999
 30
0.0
 40
0.0145816559
100
AcDbArc
 50
0.0
 51
90.0
  0
ARC
  5
742
330
1B
100
AcDbEntity
  8
0
  6
Continuous
 62
     0
100
AcDbCircle
 10
8.9399816113
 20
5.564128235
 30
0.0
 40
0.0103993176
100
AcDbArc
 50
180.0
 51
270.0
  0
ARC
  5
743
330
1B
100
AcDbEntity
  8
0
  6
Continuous
 62
     0
100
AcDbCircle
 10
8.9399816113
 20
5.564128235
 30
0.0
 40
0.0054183441
100
AcDbArc
 50
180.0
 51
270.0
  0
ARC
  5
744
330
1B
100
AcDbEntity
  8
0
  6
Continuous
 62
     0
100
AcDbCircle
 10
8.9199816113
 20
5.629128234999999
 30
0.0
 40
0.0096006824
100
AcDbArc
 50
0.0
 51
90.0
  0
ARC
  5
745
330
1B
100
AcDbEntity
  8
0
  6
Continuous
 62
     0
100
AcDbCircle
 10
8.9199816113
 20
5.629128234999999
 30
0.0
 40
0.0145816559
100
AcDbArc
 50
0.0
 51
90.0
  0
ARC
  5
746
330
1B
100
AcDbEntity
  8
0
  6
Continuous
 62
     0
100
AcDbCircle
 10
8.909981611299999
 20
5.629128234999999
 30
0.0
 40
0.0096006824
100
AcDbArc
 50
90.0
 51
180.0
  0
ARC
  5
747
330
1B
100
AcDbEntity
  8
0
  6
Continuous
 62
     0
100
AcDbCircle
 10
8.909981611299999
 20
5.629128234999999
 30
0.0
 40
0.0145816559
100
AcDbArc
 50
90.0
 51
180.0
  0
ARC
  5
748
330
1B
100
AcDbEntity
  8
0
  6
Continuous
 62
     0
100
AcDbCircle
 10
8.889981611299999
 20
5.564128235
 30
0.0
 40
0.0103993176
100
AcDbArc
 50
270.0
 51
360.0
  0
ARC
  5
749
330
1B
100
AcDbEntity
  8
0
  6
Continuous
 62
     0
100
AcDbCircle
 10
8.889981611299999
 20
5.564128235
 30
0.0
 40
0.0054183441
100
AcDbArc
 50
270.0
 51
360.0
  0
ARC
  5
74A
330
1B
100
AcDbEntity
  8
0
  6
Continuous
 62
     0
100
AcDbCircle
 10
8.8249816113
 20
5.544128234999999
 30
0.0
 40
0.0096006824
100
AcDbArc
 50
90.0
 51
180.0
  0
ARC
  5
74B
330
1B
100
AcDbEntity
  8
0
  6
Continuous
 62
     0
100
AcDbCircle
 10
8.8249816113
 20
5.544128234999999
 30
0.0
 40
0.0145816559
100
AcDbArc
 50
90.0
 51
180.0
  0
ARC
  5
74C
330
1B
100
AcDbEntity
  8
0
  6
Continuous
 62
     0
100
AcDbCircle
 10
8.8249816113
 20
5.534128234999999
 30
0.0
 40
0.0096006824
100
AcDbArc
 50
180.0
 51
270.0
  0
ARC
  5
74D
330
1B
100
AcDbEntity
  8
0
  6
Continuous
 62
     0
100
AcDbCircle
 10
8.8249816113
 20
5.534128234999999
 30
0.0
 40
0.0145816559
100
AcDbArc
 50
180.0
 51
270.0
  0
ARC
  5
74E
330
1B
100
AcDbEntity
  8
0
  6
Continuous
 62
     0
100
AcDbCircle
 10
8.889981611299999
 20
5.514128235
 30
0.0
 40
0.0103993176
100
AcDbArc
 50
0.0
 51
90.0
  0
ARC
  5
74F
330
1B
100
AcDbEntity
  8
0
  6
Continuous
 62
     0
100
AcDbCircle
 10
8.889981611299999
 20
5.514128235
 30
0.0
 40
0.0054183441
100
AcDbArc
 50
0.0
 51
90.0
  0
ARC
  5
750
330
1B
100
AcDbEntity
  8
0
  6
Continuous
 62
     0
100
AcDbCircle
 10
8.909981611299999
 20
5.449128234999999
 30
0.0
 40
0.0096006824
100
AcDbArc
 50
180.0
 51
270.0
  0
ARC
  5
751
330
1B
100
AcDbEntity
  8
0
  6
Continuous
 62
     0
100
AcDbCircle
 10
8.909981611299999
 20
5.449128234999999
 30
0.0
 40
0.0145816559
100
AcDbArc
 50
180.0
 51
270.0
  0
CIRCLE
  5
752
330
1B
100
AcDbEntity
  8
0
  6
Continuous
 62
     0
100
AcDbCircle
 10
4.8649816115
 20
5.5390916145
 30
0.0
 40
0.1476377953
  0
ARC
  5
753
330
1B
100
AcDbEntity
  8
0
  6
Continuous
 62
     0
100
AcDbCircle
 10
4.889981611499999
 20
5.5140916145
 30
0.0
 40
0.0103993176
100
AcDbArc
 50
90.0
 51
180.0
  0
ARC
  5
754
330
1B
100
AcDbEntity
  8
0
  6
Continuous
 62
     0
100
AcDbCircle
 10
4.889981611499999
 20
5.5140916145
 30
0.0
 40
0.0054183441
100
AcDbArc
 50
90.0
 51
180.0
  0
ARC
  5
755
330
1B
100
AcDbEntity
  8
0
  6
Continuous
 62
     0
100
AcDbCircle
 10
4.8699816115
 20
5.4490916145
 30
0.0
 40
0.0145816559
100
AcDbArc
 50
270.0
 51
360.0
  0
ARC
  5
756
330
1B
100
AcDbEntity
  8
0
  6
Continuous
 62
     0
100
AcDbCircle
 10
4.8699816115
 20
5.4490916145
 30
0.0
 40
0.0096006824
100
AcDbArc
 50
270.0
 51
360.0
  0
ARC
  5
757
330
1B
100
AcDbEntity
  8
0
  6
Continuous
 62
     0
100
AcDbCircle
 10
4.9549816115
 20
5.5340916145
 30
0.0
 40
0.0065004535
100
AcDbArc
 50
270.0
 51
360.0
  0
ARC
  5
758
330
1B
100
AcDbEntity
  8
0
  6
Continuous
 62
     0
100
AcDbCircle
 10
4.9549816115
 20
5.5440916145
 30
0.0
 40
0.0065004535
100
AcDbArc
 50
0.0
 51
90.0
  0
ARC
  5
759
330
1B
100
AcDbEntity
  8
0
  6
Continuous
 62
     0
100
AcDbCircle
 10
4.8699816115
 20
5.6290916145
 30
0.0
 40
0.0065004535
100
AcDbArc
 50
0.0
 51
90.0
  0
ARC
  5
75A
330
1B
100
AcDbEntity
  8
0
  6
Continuous
 62
     0
100
AcDbCircle
 10
4.859981611499999
 20
5.6290916145
 30
0.0
 40
0.0065004535
100
AcDbArc
 50
90.0
 51
180.0
  0
ARC
  5
75B
330
1B
100
AcDbEntity
  8
0
  6
Continuous
 62
     0
100
AcDbCircle
 10
4.774981611499999
 20
5.5440916145
 30
0.0
 40
0.0065004535
100
AcDbArc
 50
90.0
 51
180.0
  0
ARC
  5
75C
330
1B
100
AcDbEntity
  8
0
  6
Continuous
 62
     0
100
AcDbCircle
 10
4.774981611499999
 20
5.5340916145
 30
0.0
 40
0.0065004535
100
AcDbArc
 50
180.0
 51
270.0
  0
ARC
  5
75D
330
1B
100
AcDbEntity
  8
0
  6
Continuous
 62
     0
100
AcDbCircle
 10
4.859981611499999
 20
5.4490916145
 30
0.0
 40
0.0065004535
100
AcDbArc
 50
180.0
 51
270.0
  0
ARC
  5
75E
330
1B
100
AcDbEntity
  8
0
  6
Continuous
 62
     0
100
AcDbCircle
 10
4.8699816115
 20
5.4490916145
 30
0.0
 40
0.0065004535
100
AcDbArc
 50
270.0
 51
360.0
  0
ARC
  5
75F
330
1B
100
AcDbEntity
  8
0
  6
Continuous
 62
     0
100
AcDbCircle
 10
4.889981611499999
 20
5.5140916145
 30
0.0
 40
0.0134995465
100
AcDbArc
 50
90.0
 51
180.0
  0
ARC
  5
760
330
1B
100
AcDbEntity
  8
0
  6
Continuous
 62
     0
100
AcDbCircle
 10
4.889981611499999
 20
5.5640916145
 30
0.0
 40
0.0134995465
100
AcDbArc
 50
180.0
 51
270.0
  0
ARC
  5
761
330
1B
100
AcDbEntity
  8
0
  6
Continuous
 62
     0
100
AcDbCircle
 10
4.839981611499999
 20
5.5640916145
 30
0.0
 40
0.0134995465
100
AcDbArc
 50
270.0
 51
360.0
  0
ARC
  5
762
330
1B
100
AcDbEntity
  8
0
  6
Continuous
 62
     0
100
AcDbCircle
 10
4.839981611499999
 20
5.5140916145
 30
0.0
 40
0.0134995465
100
AcDbArc
 50
0.0
 51
90.0
  0
ARC
  5
763
330
1B
100
AcDbEntity
  8
0
  6
Continuous
 62
     0
100
AcDbCircle
 10
4.9549816115
 20
5.5340916145
 30
0.0
 40
0.0096006824
100
AcDbArc
 50
270.0
 51
360.0
  0
ARC
  5
764
330
1B
100
AcDbEntity
  8
0
  6
Continuous
 62
     0
100
AcDbCircle
 10
4.9549816115
 20
5.5340916145
 30
0.0
 40
0.0145816559
100
AcDbArc
 50
270.0
 51
360.0
  0
ARC
  5
765
330
1B
100
AcDbEntity
  8
0
  6
Continuous
 62
     0
100
AcDbCircle
 10
4.9549816115
 20
5.5440916145
 30
0.0
 40
0.0096006824
100
AcDbArc
 50
0.0
 51
90.0
  0
ARC
  5
766
330
1B
100
AcDbEntity
  8
0
  6
Continuous
 62
     0
100
AcDbCircle
 10
4.9549816115
 20
5.5440916145
 30
0.0
 40
0.0145816559
100
AcDbArc
 50
0.0
 51
90.0
  0
ARC
  5
767
330
1B
100
AcDbEntity
  8
0
  6
Continuous
 62
     0
100
AcDbCircle
 10
4.889981611499999
 20
5.5640916145
 30
0.0
 40
0.0103993176
100
AcDbArc
 50
180.0
 51
270.0
  0
ARC
  5
768
330
1B
100
AcDbEntity
  8
0
  6
Continuous
 62
     0
100
AcDbCircle
 10
4.889981611499999
 20
5.5640916145
 30
0.0
 40
0.0054183441
100
AcDbArc
 50
180.0
 51
270.0
  0
ARC
  5
769
330
1B
100
AcDbEntity
  8
0
  6
Continuous
 62
     0
100
AcDbCircle
 10
4.8699816115
 20
5.6290916145
 30
0.0
 40
0.0096006824
100
AcDbArc
 50
0.0
 51
90.0
  0
ARC
  5
76A
330
1B
100
AcDbEntity
  8
0
  6
Continuous
 62
     0
100
AcDbCircle
 10
4.8699816115
 20
5.6290916145
 30
0.0
 40
0.0145816559
100
AcDbArc
 50
0.0
 51
90.0
  0
ARC
  5
76B
330
1B
100
AcDbEntity
  8
0
  6
Continuous
 62
     0
100
AcDbCircle
 10
4.859981611499999
 20
5.6290916145
 30
0.0
 40
0.0096006824
100
AcDbArc
 50
90.0
 51
180.0
  0
ARC
  5
76C
330
1B
100
AcDbEntity
  8
0
  6
Continuous
 62
     0
100
AcDbCircle
 10
4.859981611499999
 20
5.6290916145
 30
0.0
 40
0.0145816559
100
AcDbArc
 50
90.0
 51
180.0
  0
ARC
  5
76D
330
1B
100
AcDbEntity
  8
0
  6
Continuous
 62
     0
100
AcDbCircle
 10
4.839981611499999
 20
5.5640916145
 30
0.0
 40
0.0103993176
100
AcDbArc
 50
270.0
 51
360.0
  0
ARC
  5
76E
330
1B
100
AcDbEntity
  8
0
  6
Continuous
 62
     0
100
AcDbCircle
 10
4.839981611499999
 20
5.5640916145
 30
0.0
 40
0.0054183441
100
AcDbArc
 50
270.0
 51
360.0
  0
ARC
  5
76F
330
1B
100
AcDbEntity
  8
0
  6
Continuous
 62
     0
100
AcDbCircle
 10
4.774981611499999
 20
5.5440916145
 30
0.0
 40
0.0096006824
100
AcDbArc
 50
90.0
 51
180.0
  0
ARC
  5
770
330
1B
100
AcDbEntity
  8
0
  6
Continuous
 62
     0
100
AcDbCircle
 10
4.774981611499999
 20
5.5440916145
 30
0.0
 40
0.0145816559
100
AcDbArc
 50
90.0
 51
180.0
  0
ARC
  5
771
330
1B
100
AcDbEntity
  8
0
  6
Continuous
 62
     0
100
AcDbCircle
 10
4.774981611499999
 20
5.5340916145
 30
0.0
 40
0.0096006824
100
AcDbArc
 50
180.0
 51
270.0
  0
ARC
  5
772
330
1B
100
AcDbEntity
  8
0
  6
Continuous
 62
     0
100
AcDbCircle
 10
4.774981611499999
 20
5.5340916145
 30
0.0
 40
0.0145816559
100
AcDbArc
 50
180.0
 51
270.0
  0
ARC
  5
773
330
1B
100
AcDbEntity
  8
0
  6
Continuous
 62
     0
100
AcDbCircle
 10
4.839981611499999
 20
5.5140916145
 30
0.0
 40
0.0103993176
100
AcDbArc
 50
0.0
 51
90.0
  0
ARC
  5
774
330
1B
100
AcDbEntity
  8
0
  6
Continuous
 62
     0
100
AcDbCircle
 10
4.839981611499999
 20
5.5140916145
 30
0.0
 40
0.0054183441
100
AcDbArc
 50
0.0
 51
90.0
  0
ARC
  5
775
330
1B
100
AcDbEntity
  8
0
  6
Continuous
 62
     0
100
AcDbCircle
 10
4.859981611499999
 20
5.4490916145
 30
0.0
 40
0.0096006824
100
AcDbArc
 50
180.0
 51
270.0
  0
ARC
  5
776
330
1B
100
AcDbEntity
  8
0
  6
Continuous
 62
     0
100
AcDbCircle
 10
4.859981611499999
 20
5.4490916145
 30
0.0
 40
0.0145816559
100
AcDbArc
 50
180.0
 51
270.0
  0
ARC
  5
777
330
1B
100
AcDbEntity
  8
0
  6
Continuous
 62
     0
100
AcDbCircle
 10
6.903473149699999
 20
8.664600875299999
 30
0.0
 40
0.0196850394
100
AcDbArc
 50
180.0
 51
270.0
  0
ARC
  5
778
330
1B
100
AcDbEntity
  8
0
  6
Continuous
 62
     0
100
AcDbCircle
 10
6.903473149699999
 20
8.5886166233
 30
0.0
 40
0.0196850394
100
AcDbArc
 50
90.0
 51
180.0
  0
ARC
  5
779
330
1B
100
AcDbEntity
  8
0
  6
Continuous
 62
     0
100
AcDbCircle
 10
6.827488897699999
 20
8.664600875299999
 30
0.0
 40
0.0196850394
100
AcDbArc
 50
270.0
 51
360.0
  0
ARC
  5
77A
330
1B
100
AcDbEntity
  8
0
  6
Continuous
 62
     0
100
AcDbCircle
 10
6.827488897699999
 20
8.5886166233
 30
0.0
 40
0.0196850394
100
AcDbArc
 50
0.0
 51
90.0
  0
CIRCLE
  5
77B
330
1B
100
AcDbEntity
  8
0
  6
Continuous
 62
     0
100
AcDbCircle
 10
6.8654810237
 20
8.626608749299998
 30
0.0
 40
0.157480315
  0
ARC
  5
77C
330
1B
100
AcDbEntity
  8
0
  6
Continuous
 62
     0
100
AcDbCircle
 10
6.8654810237
 20
8.626608749299998
 30
0.0
 40
0.0393700787
100
AcDbArc
 50
28.1645474261
 51
61.83545257390001
  0
ARC
  5
77D
330
1B
100
AcDbEntity
  8
0
  6
Continuous
 62
     0
100
AcDbCircle
 10
6.8654810237
 20
8.626608749299998
 30
0.0
 40
0.0393700787
100
AcDbArc
 50
208.1645474261
 51
241.8354525739
  0
ARC
  5
77E
330
1B
100
AcDbEntity
  8
0
  6
Continuous
 62
     0
100
AcDbCircle
 10
6.8654810237
 20
8.626608749299998
 30
0.0
 40
0.0393700787
100
AcDbArc
 50
118.1645474261
 51
151.8354525739
  0
ARC
  5
77F
330
1B
100
AcDbEntity
  8
0
  6
Continuous
 62
     0
100
AcDbCircle
 10
6.8654810237
 20
8.626608749299998
 30
0.0
 40
0.0393700787
100
AcDbArc
 50
298.1645474261
 51
331.8354525739
  0
CIRCLE
  5
780
330
1B
100
AcDbEntity
  8
0
  6
Continuous
 62
     0
100
AcDbCircle
 10
6.759981023699999
 20
5.604108749299999
 30
0.0
 40
0.1401574803
  0
CIRCLE
  5
781
330
1B
100
AcDbEntity
  8
0
  6
Continuous
 62
     0
100
AcDbCircle
 10
6.759981023699999
 20
5.604108749299999
 30
0.0
 40
0.0984251969
  0
ARC
  5
782
330
1B
100
AcDbEntity
  8
0
  6
Continuous
 62
     0
100
AcDbCircle
 10
8.9534731497
 20
10.5771008753
 30
0.0
 40
0.0196850394
100
AcDbArc
 50
180.0
 51
270.0
  0
ARC
  5
783
330
1B
100
AcDbEntity
  8
0
  6
Continuous
 62
     0
100
AcDbCircle
 10
8.9534731497
 20
10.5011166233
 30
0.0
 40
0.0196850394
100
AcDbArc
 50
90.0
 51
180.0
  0
ARC
  5
784
330
1B
100
AcDbEntity
  8
0
  6
Continuous
 62
     0
100
AcDbCircle
 10
8.877488897699999
 20
10.5771008753
 30
0.0
 40
0.0196850394
100
AcDbArc
 50
270.0
 51
360.0
  0
ARC
  5
785
330
1B
100
AcDbEntity
  8
0
  6
Continuous
 62
     0
100
AcDbCircle
 10
8.877488897699999
 20
10.5011166233
 30
0.0
 40
0.0196850394
100
AcDbArc
 50
0.0
 51
90.0
  0
CIRCLE
  5
786
330
1B
100
AcDbEntity
  8
0
  6
Continuous
 62
     0
100
AcDbCircle
 10
8.915481023699999
 20
10.5391087493
 30
0.0
 40
0.157480315
  0
ARC
  5
787
330
1B
100
AcDbEntity
  8
0
  6
Continuous
 62
     0
100
AcDbCircle
 10
8.915481023699999
 20
10.5391087493
 30
0.0
 40
0.0393700787
100
AcDbArc
 50
28.1645474261
 51
61.83545257390001
  0
ARC
  5
788
330
1B
100
AcDbEntity
  8
0
  6
Continuous
 62
     0
100
AcDbCircle
 10
8.915481023699999
 20
10.5391087493
 30
0.0
 40
0.0393700787
100
AcDbArc
 50
208.1645474261
 51
241.8354525739
  0
ARC
  5
789
330
1B
100
AcDbEntity
  8
0
  6
Continuous
 62
     0
100
AcDbCircle
 10
8.915481023699999
 20
10.5391087493
 30
0.0
 40
0.0393700787
100
AcDbArc
 50
118.1645474261
 51
151.8354525739
  0
ARC
  5
78A
330
1B
100
AcDbEntity
  8
0
  6
Continuous
 62
     0
100
AcDbCircle
 10
8.915481023699999
 20
10.5391087493
 30
0.0
 40
0.0393700787
100
AcDbArc
 50
298.1645474261
 51
331.8354525739
  0
ARC
  5
78B
330
1B
100
AcDbEntity
  8
0
  6
Continuous
 62
     0
100
AcDbCircle
 10
4.903473149699999
 20
10.5771008753
 30
0.0
 40
0.0196850394
100
AcDbArc
 50
180.0
 51
270.0
  0
ARC
  5
78C
330
1B
100
AcDbEntity
  8
0
  6
Continuous
 62
     0
100
AcDbCircle
 10
4.903473149699999
 20
10.5011166233
 30
0.0
 40
0.0196850394
100
AcDbArc
 50
90.0
 51
180.0
  0
ARC
  5
78D
330
1B
100
AcDbEntity
  8
0
  6
Continuous
 62
     0
100
AcDbCircle
 10
4.827488897699999
 20
10.5771008753
 30
0.0
 40
0.0196850394
100
AcDbArc
 50
270.0
 51
360.0
  0
ARC
  5
78E
330
1B
100
AcDbEntity
  8
0
  6
Continuous
 62
     0
100
AcDbCircle
 10
4.827488897699999
 20
10.5011166233
 30
0.0
 40
0.0196850394
100
AcDbArc
 50
0.0
 51
90.0
  0
CIRCLE
  5
78F
330
1B
100
AcDbEntity
  8
0
  6
Continuous
 62
     0
100
AcDbCircle
 10
4.8654810237
 20
10.5391087493
 30
0.0
 40
0.157480315
  0
ARC
  5
790
330
1B
100
AcDbEntity
  8
0
  6
Continuous
 62
     0
100
AcDbCircle
 10
4.8654810237
 20
10.5391087493
 30
0.0
 40
0.0393700787
100
AcDbArc
 50
28.1645474261
 51
61.83545257390001
  0
ARC
  5
791
330
1B
100
AcDbEntity
  8
0
  6
Continuous
 62
     0
100
AcDbCircle
 10
4.8654810237
 20
10.5391087493
 30
0.0
 40
0.0393700787
100
AcDbArc
 50
208.1645474261
 51
241.8354525739
  0
ARC
  5
792
330
1B
100
AcDbEntity
  8
0
  6
Continuous
 62
     0
100
AcDbCircle
 10
4.8654810237
 20
10.5391087493
 30
0.0
 40
0.0393700787
100
AcDbArc
 50
118.1645474261
 51
151.8354525739
  0
ARC
  5
793
330
1B
100
AcDbEntity
  8
0
  6
Continuous
 62
     0
100
AcDbCircle
 10
4.8654810237
 20
10.5391087493
 30
0.0
 40
0.0393700787
100
AcDbArc
 50
298.1645474261
 51
331.8354525739
  0
CIRCLE
  5
794
330
1B
100
AcDbEntity
  8
0
  6
Continuous
 62
     0
100
AcDbCircle
 10
8.8274810237
 20
4.3391087493
 30
0.0
 40
0.1181102362
  0
CIRCLE
  5
795
330
1B
100
AcDbEntity
  8
0
  6
Continuous
 62
     0
100
AcDbCircle
 10
8.8274810237
 20
4.3391087493
 30
0.0
 40
0.1081102362
  0
CIRCLE
  5
796
330
1B
100
AcDbEntity
  8
0
  6
Continuous
 62
     0
100
AcDbCircle
 10
5.259981023699999
 20
10.7391087493
 30
0.0
 40
0.125
  0
CIRCLE
  5
797
330
1B
100
AcDbEntity
  8
0
  6
Continuous
 62
     0
100
AcDbCircle
 10
5.259981023699999
 20
10.7391087493
 30
0.0
 40
0.025
  0
CIRCLE
  5
798
330
1B
100
AcDbEntity
  8
0
  6
Continuous
 62
     0
100
AcDbCircle
 10
5.259981023699999
 20
10.7391087493
 30
0.0
 40
0.0885
  0
CIRCLE
  5
799
330
1B
100
AcDbEntity
  8
0
  6
Continuous
 62
     0
100
AcDbCircle
 10
7.609981023699999
 20
10.7391087493
 30
0.0
 40
0.125
  0
CIRCLE
  5
79A
330
1B
100
AcDbEntity
  8
0
  6
Continuous
 62
     0
100
AcDbCircle
 10
7.609981023699999
 20
10.7391087493
 30
0.0
 40
0.025
  0
CIRCLE
  5
79B
330
1B
100
AcDbEntity
  8
0
  6
Continuous
 62
     0
100
AcDbCircle
 10
7.609981023699999
 20
10.7391087493
 30
0.0
 40
0.0885
  0
ARC
  5
79C
330
1B
100
AcDbEntity
  8
0
  6
Continuous
 62
     0
100
AcDbCircle
 10
13.8422313302
 20
4.7141087493
 30
0.0
 40
0.25
100
AcDbArc
 50
270.0
 51
313.3270345709
  0
ARC
  5
79D
330
1B
100
AcDbEntity
  8
0
  6
Continuous
 62
     0
100
AcDbCircle
 10
13.8422313302
 20
3.9641087493
 30
0.0
 40
0.25
100
AcDbArc
 50
46.67296542909999
 51
90.0
  0
CIRCLE
  5
79E
330
1B
100
AcDbEntity
  8
0
  6
Continuous
 62
     0
100
AcDbCircle
 10
14.1959476714
 20
4.3391087493
 30
0.0
 40
0.1325
  0
ARC
  5
79F
330
1B
100
AcDbEntity
  8
0
  6
Continuous
 62
     0
100
AcDbCircle
 10
14.1959476714
 20
4.3391087493
 30
0.0
 40
0.2655
100
AcDbArc
 50
226.6729654291
 51
133.3270345709
  0
ARC
  5
7A0
330
1B
100
AcDbEntity
  8
0
  6
Continuous
 62
     0
100
AcDbCircle
 10
9.1811973648
 20
3.9641087493
 30
0.0
 40
0.25
100
AcDbArc
 50
90.0
 51
133.3270345709
  0
ARC
  5
7A1
330
1B
100
AcDbEntity
  8
0
  6
Continuous
 62
     0
100
AcDbCircle
 10
9.1811973648
 20
4.7141087493
 30
0.0
 40
0.25
100
AcDbArc
 50
226.6729654291
 51
270.0
  0
CIRCLE
  5
7A2
330
1B
100
AcDbEntity
  8
0
  6
Continuous
 62
     0
100
AcDbCircle
 10
8.8274810237
 20
4.3391087493
 30
0.0
 40
0.1325
  0
ARC
  5
7A3
330
1B
100
AcDbEntity
  8
0
  6
Continuous
 62
     0
100
AcDbCircle
 10
8.8274810237
 20
4.3391087493
 30
0.0
 40
0.2655
100
AcDbArc
 50
46.67296542909999
 51
313.3270345709
  0
CIRCLE
  5
7A4
330
1B
100
AcDbEntity
  8
0
  6
Continuous
 62
     0
100
AcDbCircle
 10
8.8024810237
 20
6.044108749299999
 30
0.0
 40
0.12
  0
CIRCLE
  5
7A5
330
1B
100
AcDbEntity
  8
0
  6
Continuous
 62
     0
100
AcDbCircle
 10
8.8024810237
 20
9.8441087493
 30
0.0
 40
0.12
  0
CIRCLE
  5
7A6
330
1B
100
AcDbEntity
  8
0
  6
Continuous
 62
     0
100
AcDbCircle
 10
8.8024810237
 20
9.8441087493
 30
0.0
 40
0.0299998855
  0
CIRCLE
  5
7A7
330
1B
100
AcDbEntity
  8
0
  6
Continuous
 62
     0
100
AcDbCircle
 10
8.8024810237
 20
6.044108749299999
 30
0.0
 40
0.0299998855
  0
CIRCLE
  5
7A8
330
1B
100
AcDbEntity
  8
0
  6
Continuous
 62
     0
100
AcDbCircle
 10
5.247481023699999
 20
6.044108749299999
 30
0.0
 40
0.12
  0
CIRCLE
  5
7A9
330
1B
100
AcDbEntity
  8
0
  6
Continuous
 62
     0
100
AcDbCircle
 10
5.247481023699999
 20
9.8441087493
 30
0.0
 40
0.12
  0
CIRCLE
  5
7AA
330
1B
100
AcDbEntity
  8
0
  6
Continuous
 62
     0
100
AcDbCircle
 10
5.247481023699999
 20
9.8441087493
 30
0.0
 40
0.0299998855
  0
CIRCLE
  5
7AB
330
1B
100
AcDbEntity
  8
0
  6
Continuous
 62
     0
100
AcDbCircle
 10
5.247481023699999
 20
6.044108749299999
 30
0.0
 40
0.0299998855
  0
ARC
  5
7AC
330
1B
100
AcDbEntity
  8
0
  6
Continuous
 62
     0
100
AcDbCircle
 10
9.294979983699999
 20
5.719131671
 30
0.0
 40
0.12
100
AcDbArc
 50
0.0005180735
 51
90.00051807350001
  0
ARC
  5
7AD
330
1B
100
AcDbEntity
  8
0
  6
Continuous
 62
     0
100
AcDbCircle
 10
4.484979983899999
 20
5.719088178499999
 30
0.0
 40
0.12
100
AcDbArc
 50
90.00051807350001
 51
180.0005180735
  0
CIRCLE
  5
7AE
330
1B
100
AcDbEntity
  8
0
  6
Continuous
 62
     0
100
AcDbCircle
 10
6.759981023699999
 20
5.604108749299999
 30
0.0
 40
0.1425
  0
CIRCLE
  5
7AF
330
1B
100
AcDbEntity
  8
0
  6
Continuous
 62
     0
100
AcDbCircle
 10
6.759981023699999
 20
5.604108749299999
 30
0.0
 40
0.1925
  0
CIRCLE
  5
7B0
330
1B
100
AcDbEntity
  8
0
  6
Continuous
 62
     0
100
AcDbCircle
 10
4.8649816115
 20
5.5390916145
 30
0.0
 40
0.1785
  0
CIRCLE
  5
7B1
330
1B
100
AcDbEntity
  8
0
  6
Continuous
 62
     0
100
AcDbCircle
 10
8.914981611299999
 20
5.539128234999999
 30
0.0
 40
0.1785
  0
CIRCLE
  5
7B2
330
1B
100
AcDbEntity
  8
0
  6
Continuous
 62
     0
100
AcDbCircle
 10
5.259981023699999
 20
10.7391087493
 30
0.0
 40
0.15
  0
CIRCLE
  5
7B3
330
1B
100
AcDbEntity
  8
0
  6
Continuous
 62
     0
100
AcDbCircle
 10
7.609981023699999
 20
10.7391087493
 30
0.0
 40
0.15
  0
CIRCLE
  5
7B4
330
1B
100
AcDbEntity
  8
0
  6
Continuous
 62
     0
100
AcDbCircle
 10
6.8654810237
 20
8.626608749299998
 30
0.0
 40
0.1875
  0
ARC
  5
7B5
330
1B
100
AcDbEntity
  8
0
  6
Continuous
 62
     0
100
AcDbCircle
 10
9.042981023699999
 20
9.998608749299998
 30
0.0
 40
0.06
100
AcDbArc
 50
0.0
 51
90.0
  0
ARC
  5
7B6
330
1B
100
AcDbEntity
  8
0
  6
Continuous
 62
     0
100
AcDbCircle
 10
9.042981023699999
 20
5.868608749299999
 30
0.0
 40
0.06
100
AcDbArc
 50
330.2082647736999
 51
360.0
  0
ARC
  5
7B7
330
1B
100
AcDbEntity
  8
0
  6
Continuous
 62
     0
100
AcDbCircle
 10
8.612981023699999
 20
5.868608749299999
 30
0.0
 40
0.06
100
AcDbArc
 50
180.0
 51
209.7969521591
  0
ARC
  5
7B8
330
1B
100
AcDbEntity
  8
0
  6
Continuous
 62
     0
100
AcDbCircle
 10
8.612981023699999
 20
9.998608749299998
 30
0.0
 40
0.06
100
AcDbArc
 50
90.0
 51
180.0
  0
ARC
  5
7B9
330
1B
100
AcDbEntity
  8
0
  6
Continuous
 62
     0
100
AcDbCircle
 10
5.392981023699999
 20
9.998608749299998
 30
0.0
 40
0.06
100
AcDbArc
 50
0.0
 51
90.0
  0
ARC
  5
7BA
330
1B
100
AcDbEntity
  8
0
  6
Continuous
 62
     0
100
AcDbCircle
 10
5.392981023699999
 20
5.868608749299999
 30
0.0
 40
0.06
100
AcDbArc
 50
330.1725383591
 51
360.0
  0
ARC
  5
7BB
330
1B
100
AcDbEntity
  8
0
  6
Continuous
 62
     0
100
AcDbCircle
 10
4.9629810237
 20
5.868608749299999
 30
0.0
 40
0.06
100
AcDbArc
 50
180.0
 51
209.832677925
  0
ARC
  5
7BC
330
1B
100
AcDbEntity
  8
0
  6
Continuous
 62
     0
100
AcDbCircle
 10
4.9629810237
 20
9.998608749299998
 30
0.0
 40
0.06
100
AcDbArc
 50
90.0
 51
180.0
  0
ARC
  5
7BD
330
1B
100
AcDbEntity
  8
0
  6
Continuous
 62
     0
100
AcDbCircle
 10
8.727481023699999
 20
11.5391087493
 30
0.0
 40
0.4
100
AcDbArc
 50
180.0
 51
360.0
  0
ARC
  5
7BE
330
1B
100
AcDbEntity
  8
0
  6
Continuous
 62
     0
100
AcDbCircle
 10
5.2274810237
 20
11.5391087493
 30
0.0
 40
0.4
100
AcDbArc
 50
180.0
 51
360.0
  0
ARC
  5
7BF
330
1B
100
AcDbEntity
  8
0
  6
Continuous
 62
     0
100
AcDbCircle
 10
8.727481023699999
 20
12.0391087493
 30
0.0
 40
0.4
100
AcDbArc
 50
0.0
 51
180.0
  0
ARC
  5
7C0
330
1B
100
AcDbEntity
  8
0
  6
Continuous
 62
     0
100
AcDbCircle
 10
5.2274810237
 20
12.0391087493
 30
0.0
 40
0.4
100
AcDbArc
 50
0.0
 51
180.0
  0
CIRCLE
  5
7C1
330
1B
100
AcDbEntity
  8
0
  6
Continuous
 62
     0
100
AcDbCircle
 10
5.259981023699999
 20
10.7391087493
 30
0.0
 40
0.145
  0
CIRCLE
  5
7C2
330
1B
100
AcDbEntity
  8
0
  6
Continuous
 62
     0
100
AcDbCircle
 10
7.609981023699999
 20
10.7391087493
 30
0.0
 40
0.145
  0
CIRCLE
  5
7C3
330
1B
100
AcDbEntity
  8
0
  6
Continuous
 62
     0
100
AcDbCircle
 10
9.470481023699999
 20
12.3391087493
 30
0.0
 40
0.0625
  0
CIRCLE
  5
7C4
330
1B
100
AcDbEntity
  8
0
  6
Continuous
 62
     0
100
AcDbCircle
 10
7.609981023699999
 20
10.7391087493
 30
0.0
 40
0.1467453736
  0
CIRCLE
  5
7C5
330
1B
100
AcDbEntity
  8
0
  6
Continuous
 62
     0
100
AcDbCircle
 10
5.259981023699999
 20
10.7391087493
 30
0.0
 40
0.1467453736
  0
ARC
  5
7C6
330
1B
100
AcDbEntity
  8
0
  6
Continuous
 62
     0
100
AcDbCircle
 10
9.477481023699999
 20
3.689108749299999
 30
0.0
 40
0.15
100
AcDbArc
 50
270.0
 51
360.0
  0
ARC
  5
7C7
330
1B
100
AcDbEntity
  8
0
  6
Continuous
 62
     0
100
AcDbCircle
 10
4.4774810237
 20
3.689108749299999
 30
0.0
 40
0.15
100
AcDbArc
 50
180.0
 51
270.0
  0
CIRCLE
  5
7C8
330
1B
100
AcDbEntity
  8
0
  6
Continuous
 62
     0
100
AcDbCircle
 10
6.759981023699999
 20
5.604108749299999
 30
0.0
 40
0.14055
  0
CIRCLE
  5
7C9
330
1B
100
AcDbEntity
  8
0
  6
Continuous
 62
     0
100
AcDbCircle
 10
7.609981023699999
 20
10.7391087493
 30
0.0
 40
0.136
  0
CIRCLE
  5
7CA
330
1B
100
AcDbEntity
  8
0
  6
Continuous
 62
     0
100
AcDbCircle
 10
5.259981023699999
 20
10.7391087493
 30
0.0
 40
0.136
  0
ARC
  5
7CB
330
1B
100
AcDbEntity
  8
0
  6
Continuous
 62
     0
100
AcDbCircle
 10
5.2274810237
 20
12.0391087493
 30
0.0
 40
0.15625
100
AcDbArc
 50
0.0
 51
180.0
  0
ARC
  5
7CC
330
1B
100
AcDbEntity
  8
0
  6
Continuous
 62
     0
100
AcDbCircle
 10
5.2274810237
 20
4.5391087493
 30
0.0
 40
0.15625
100
AcDbArc
 50
0.0
 51
180.0
  0
ARC
  5
7CD
330
1B
100
AcDbEntity
  8
0
  6
Continuous
 62
     0
100
AcDbCircle
 10
7.9774810237
 20
4.5391087493
 30
0.0
 40
0.15625
100
AcDbArc
 50
0.0
 51
180.0
  0
ARC
  5
7CE
330
1B
100
AcDbEntity
  8
0
  6
Continuous
 62
     0
100
AcDbCircle
 10
8.727481023699999
 20
12.0391087493
 30
0.0
 40
0.15625
100
AcDbArc
 50
0.0
 51
180.0
  0
ARC
  5
7CF
330
1B
100
AcDbEntity
  8
0
  6
Continuous
 62
     0
100
AcDbCircle
 10
5.2274810237
 20
11.5391087493
 30
0.0
 40
0.3125
100
AcDbArc
 50
120.0
 51
60.0
  0
ARC
  5
7D0
330
1B
100
AcDbEntity
  8
0
  6
Continuous
 62
     0
100
AcDbCircle
 10
5.2274810237
 20
4.0391087493
 30
0.0
 40
0.3125
100
AcDbArc
 50
120.0
 51
60.0
  0
ARC
  5
7D1
330
1B
100
AcDbEntity
  8
0
  6
Continuous
 62
     0
100
AcDbCircle
 10
7.9774810237
 20
4.0391087493
 30
0.0
 40
0.3125
100
AcDbArc
 50
120.0
 51
60.0
  0
ARC
  5
7D2
330
1B
100
AcDbEntity
  8
0
  6
Continuous
 62
     0
100
AcDbCircle
 10
8.727481023699999
 20
11.5391087493
 30
0.0
 40
0.3125
100
AcDbArc
 50
120.0
 51
60.0
  0
ARC
  5
7D3
330
1B
100
AcDbEntity
  8
0
  6
Continuous
 62
     0
100
AcDbCircle
 10
17.7532523109
 20
8.587238670599999
 30
0.0
 40
0.1663385827
100
AcDbArc
 50
222.8943532993
 51
225.2397298961
  0
ARC
  5
7D4
330
1B
100
AcDbEntity
  8
0
  6
Continuous
 62
     0
100
AcDbCircle
 10
17.7532523109
 20
8.665978828
 30
0.0
 40
0.1663385827
100
AcDbArc
 50
135.4412562974
 51
137.1751569494
  0
ARC
  5
7D5
330
1B
100
AcDbEntity
  8
0
  6
Continuous
 62
     0
100
AcDbCircle
 10
17.5650499486
 20
10.3855654422
 30
0.0
 40
0.0039370079
100
AcDbArc
 50
270.0
 51
360.0
  0
ARC
  5
7D6
330
1B
100
AcDbEntity
  8
0
  6
Continuous
 62
     0
100
AcDbCircle
 10
17.5650499486
 20
10.6926520564
 30
0.0
 40
0.0039370079
100
AcDbArc
 50
0.0
 51
90.0
  0
ARC
  5
7D7
330
1B
100
AcDbEntity
  8
0
  6
Continuous
 62
     0
100
AcDbCircle
 10
17.6073727833
 20
10.4997386706
 30
0.0
 40
0.1663385827
100
AcDbArc
 50
197.9202131394
 51
225.2397298961
  0
ARC
  5
7D8
330
1B
100
AcDbEntity
  8
0
  6
Continuous
 62
     0
100
AcDbCircle
 10
17.6073727833
 20
10.578478828
 30
0.0
 40
0.1663385827
100
AcDbArc
 50
134.7602701039
 51
162.0797868606
  0
ARC
  5
7D9
330
1B
100
AcDbEntity
  8
0
  6
Continuous
 62
     0
100
AcDbCircle
 10
17.7439869565
 20
4.2141087493
 30
0.0
 40
0.025
100
AcDbArc
 50
180.0
 51
360.0
  0
ARC
  5
7DA
330
1B
100
AcDbEntity
  8
0
  6
Continuous
 62
     0
100
AcDbCircle
 10
17.7439869565
 20
4.2141087493
 30
0.0
 40
0.0875
100
AcDbArc
 50
180.0
 51
286.6393695755
  0
ARC
  5
7DB
330
1B
100
AcDbEntity
  8
0
  6
Continuous
 62
     0
100
AcDbCircle
 10
17.7439869565
 20
4.4641087493
 30
0.0
 40
0.0875
100
AcDbArc
 50
73.36063042450001
 51
180.0
  0
ARC
  5
7DC
330
1B
100
AcDbEntity
  8
0
  6
Continuous
 62
     0
100
AcDbCircle
 10
17.7439869565
 20
4.4641087493
 30
0.0
 40
0.025
100
AcDbArc
 50
0.0
 51
180.0
  0
ARC
  5
7DD
330
1B
100
AcDbEntity
  8
0
  6
Continuous
 62
     0
100
AcDbCircle
 10
17.5989869565
 20
5.2391327561
 30
0.0
 40
0.1346
100
AcDbArc
 50
180.0
 51
270.0
  0
ARC
  5
7DE
330
1B
100
AcDbEntity
  8
0
  6
Continuous
 62
     0
100
AcDbCircle
 10
17.9564869565
 20
11.4818051696
 30
0.0
 40
0.5
100
AcDbArc
 50
180.0
 51
197.0
  0
ARC
  5
7DF
330
1B
100
AcDbEntity
  8
0
  6
Continuous
 62
     0
100
AcDbCircle
 10
17.9564869565
 20
12.1818051696
 30
0.0
 40
0.5
100
AcDbArc
 50
155.9103094668
 51
180.0
  0
ARC
  5
7E0
330
1B
100
AcDbEntity
  8
0
  6
Continuous
 62
     0
100
AcDbCircle
 10
17.9564869565
 20
12.1818051696
 30
0.0
 40
0.5
100
AcDbArc
 50
152.3736899683
 51
153.8853290746
  0
ARC
  5
7E1
330
1B
100
AcDbEntity
  8
0
  6
Continuous
 62
     0
100
AcDbCircle
 10
17.0614869565
 20
6.014108749299999
 30
0.0
 40
0.09
100
AcDbArc
 50
180.0
 51
270.0
  0
ARC
  5
7E2
330
1B
100
AcDbEntity
  8
0
  6
Continuous
 62
     0
100
AcDbCircle
 10
17.0614869565
 20
6.074108749299999
 30
0.0
 40
0.09
100
AcDbArc
 50
90.0
 51
180.0
  0
ARC
  5
7E3
330
1B
100
AcDbEntity
  8
0
  6
Continuous
 62
     0
100
AcDbCircle
 10
17.0614869565
 20
9.814108749299998
 30
0.0
 40
0.09
100
AcDbArc
 50
180.0
 51
270.0
  0
ARC
  5
7E4
330
1B
100
AcDbEntity
  8
0
  6
Continuous
 62
     0
100
AcDbCircle
 10
17.0614869565
 20
9.874108749299999
 30
0.0
 40
0.09
100
AcDbArc
 50
90.0
 51
180.0
  0
ARC
  5
7E5
330
1B
100
AcDbEntity
  8
0
  6
Continuous
 62
     0
100
AcDbCircle
 10
17.7865869565
 20
12.8746087493
 30
0.0
 40
0.0449
100
AcDbArc
 50
0.0
 51
90.0
  0
ARC
  5
7E6
330
1B
100
AcDbEntity
  8
0
  6
Continuous
 62
     0
100
AcDbCircle
 10
17.5989869565
 20
5.2391327561
 30
0.0
 40
0.03
100
AcDbArc
 50
180.0
 51
270.0
  0
ARC
  5
7E7
330
1B
100
AcDbEntity
  8
0
  6
Continuous
 62
     0
100
AcDbCircle
 10
17.7865869565
 20
12.8746087493
 30
0.0
 40
0.1645
100
AcDbArc
 50
0.0
 51
90.0
  0
SPLINE
  5
7E8
330
1B
100
AcDbEntity
  8
0
  6
Continuous
 62
     0
100
AcDbSpline
210
0.0
220
0.0
230
1.0
 70
     8
 71
     3
 72
    10
 73
     6
 74
     4
 42
0.0000000001
 43
0.0000000001
 44
0.0000000001
 12
0.0026680616506802
 22
0.9999964407171798
 32
0.0
 13
0.0
 23
1.0
 33
0.0
 40
0.0
 40
0.0
 40
0.0
 40
0.0
 40
0.0479277365837297
 40
0.0968156530638472
 40
0.1461860148686237
 40
0.1461860148686237
 40
0.1461860148686237
 40
0.1461860148686237
 10
4.3685629378
 20
11.3356193172
 30
0.0
 10
4.368605562518661
 20
11.35159517253178
 30
0.0
 10
4.368676283227459
 20
11.38386698484957
 30
0.0
 10
4.368739522207579
 20
11.43259562103034
 30
0.0
 10
4.3687535991
 20
11.46534838233174
 30
0.0
 10
4.3687535991
 20
11.4818051696
 30
0.0
 11
4.3685629378
 21
11.3356193172
 31
0.0
 11
4.3686685144
 21
11.3835469375
 31
0.0
 11
4.368732275899999
 21
11.4324348124
 31
0.0
 11
4.3687535991
 21
11.4818051696
 31
0.0
  0
SPLINE
  5
7E9
330
1B
100
AcDbEntity
  8
0
  6
Continuous
 62
     0
100
AcDbSpline
210
0.0
220
0.0
230
1.0
 70
     8
 71
     3
 72
    10
 73
     6
 74
     4
 42
0.0000000001
 43
0.0000000001
 44
0.0000000001
 12
-0.0160206100349489
 22
0.9998716617917061
 32
0.0
 13
0.0
 23
1.0
 33
0.0
 40
0.0
 40
0.0
 40
0.0
 40
0.0
 40
0.0479343638197418
 40
0.096823271531652
 40
0.1461917114778551
 40
0.1461917114778551
 40
0.1461917114778551
 40
0.1461917114778551
 10
9.301165714099999
 20
11.3356193172
 30
0.0
 10
9.300909734849989
 20
11.35159538786979
 30
0.0
 10
9.300485031106516
 20
11.38386721383449
 30
0.0
 10
9.3001052627174
 20
11.43259650619435
 30
0.0
 10
9.300020728799999
 20
11.46534902295127
 30
0.0
 10
9.300020728799999
 20
11.4818051696
 30
0.0
 11
9.301165714099999
 21
11.3356193172
 31
0.0
 11
9.300531664099999
 21
11.3835494874
 31
0.0
 11
9.300148771199999
 21
11.4324368957
 31
0.0
 11
9.300020728799999
 21
11.4818051696
 31
0.0
  0
SPLINE
  5
7EA
330
1B
100
AcDbEntity
  8
0
  6
Continuous
 62
     0
100
AcDbSpline
210
0.0
220
0.0
230
1.0
 70
     8
 71
     3
 72
    10
 73
     6
 74
     4
 42
0.0000000001
 43
0.0000000001
 44
0.0000000001
 12
0.0
 22
1.0
 32
0.0
 13
0.0274184629913674
 23
0.9996240432718648
 33
0.0
 40
0.0
 40
0.0
 40
0.0
 40
0.0
 40
0.0800081425666985
 40
0.1579666415707272
 40
0.2318769655738601
 40
0.2318769655738601
 40
0.2318769655738601
 40
0.2318769655738601
 10
9.300020728799999
 20
12.1818051696
 30
0.0
 10
9.300020728799999
 20
12.20847455045557
 30
0.0
 10
9.300240092438826
 20
12.26113039716661
 30
0.0
 10
9.301222636730535
 20
12.33841734576626
 30
0.0
 10
9.302332712305547
 20
12.38902912129348
 30
0.0
 10
9.3030082148
 20
12.4136566336
 30
0.0
 11
9.300020728799999
 21
12.1818051696
 31
0.0
 11
9.3003583762
 21
12.2618125997
 31
0.0
 11
9.301362729800001
 21
12.3397646288
 31
0.0
 11
9.3030082148
 21
12.4136566336
 31
0.0
  0
SPLINE
  5
7EB
330
1B
100
AcDbEntity
  8
0
  6
Continuous
 62
     0
100
AcDbSpline
210
0.0
220
0.0
230
1.0
 70
     8
 71
     3
 72
    10
 73
     6
 74
     4
 42
0.0000000001
 43
0.0000000001
 44
0.0000000001
 12
0.0
 22
1.0
 32
0.0
 13
-0.0045673525266551
 23
0.999989569591052
 33
0.0
 40
0.0
 40
0.0
 40
0.0
 40
0.0
 40
0.0800159192619707
 40
0.1579696650026115
 40
0.2318521711878765
 40
0.2318521711878765
 40
0.2318521711878765
 40
0.2318521711878765
 10
4.3687535991
 20
12.1818051696
 30
0.0
 10
4.3687535991
 20
12.20847714268732
 30
0.0
 10
4.36871706797884
 20
12.2611337059975
 30
0.0
 10
4.368553455124102
 20
12.33841761405416
 30
0.0
 10
4.368368609683767
 20
12.38902938841316
 30
0.0
 10
4.3682561272
 20
12.4136566336
 30
0.0
 11
4.3687535991
 21
12.1818051696
 31
0.0
 11
4.368697362599999
 21
12.2618210691
 31
0.0
 11
4.368530102
 21
12.3397746354
 31
0.0
 11
4.3682561272
 21
12.4136566336
 31
0.0
  0
SPLINE
  5
7EC
330
1B
100
AcDbEntity
  8
0
  6
Continuous
 62
     0
100
AcDbSpline
210
0.0
220
0.0
230
1.0
 70
     8
 71
     3
 72
    15
 73
    11
 74
     9
 42
0.0000000001
 43
0.0000000001
 44
0.0000000001
 12
-0.0664834694369912
 22
-0.9977875266265963
 32
0.0
 13
0.0664834694369912
 23
-0.9977875266265963
 33
0.0
 40
0.0
 40
0.0
 40
0.0
 40
0.0
 40
0.004580075189025
 40
0.0091602001239831
 40
0.0137403534126621
 40
0.0183204302205907
 40
0.0229004564817654
 40
0.0274804802613191
 40
0.0320604481852781
 40
0.0366404238574146
 40
0.0366404238574146
 40
0.0366404238574146
 40
0.0366404238574146
 10
17.4497081797
 20
10.5574158359
 30
0.0
 10
17.44960667993705
 20
10.55589252193512
 30
0.0
 10
17.44942982215367
 20
10.55284407367393
 30
0.0
 10
17.44924146869979
 20
10.54826762913926
 30
0.0
 10
17.44912892061846
 20
10.54368868396375
 30
0.0
 10
17.44909148565372
 20
10.53910854783926
 30
0.0
 10
17.44912892696815
 20
10.53452845494402
 30
0.0
 10
17.44924147758357
 20
10.52994962223723
 30
0.0
 10
17.44942982870216
 20
10.52537330641414
 30
0.0
 10
17.44960668214246
 20
10.52232494356597
 30
0.0
 10
17.4497081797
 20
10.5208016627
 30
0.0
 11
17.4497081797
 21
10.5574158359
 31
0.0
 11
17.4494426453
 21
10.5528434645
 31
0.0
 11
17.4492541033
 21
10.5482672219
 31
0.0
 11
17.449141439
 21
10.5436884545
 31
0.0
 11
17.449103965
 21
10.539108531
 31
0.0
 11
17.4491414453
 21
10.5345286581
 31
0.0
 11
17.4492541117
 21
10.5299500203
 31
0.0
 11
17.4494426502
 21
10.5253739347
 31
0.0
 11
17.4497081797
 21
10.5208016627
 31
0.0
  0
SPLINE
  5
7ED
330
1B
100
AcDbEntity
  8
0
  6
Continuous
 62
     0
100
AcDbSpline
210
0.0
220
0.0
230
1.0
 70
     8
 71
     3
 72
     9
 73
     5
 74
     3
 42
0.0000000001
 43
0.0000000001
 44
0.0000000001
 12
0.0
 22
-1.0
 32
0.0
 13
1.0
 23
0.0
 33
0.0
 40
0.0
 40
0.0
 40
0.0
 40
0.0
 40
0.0002035533763203
 40
0.0002781611672652
 40
0.0002781611672652
 40
0.0002781611672652
 40
0.0002781611672652
 10
17.4410342006
 20
10.5576916373
 30
0.0
 10
17.4410342006
 20
10.55762378617456
 30
0.0
 10
17.44104932327549
 20
10.55756194567577
 30
0.0
 10
17.44103294483635
 20
10.5574158359
 30
0.0
 10
17.4410578141
 20
10.5574158359
 30
0.0
 11
17.4410342006
 21
10.5576916373
 31
0.0
 11
17.4410394646
 21
10.557488152
 31
0.0
 11
17.4410578141
 21
10.5574158359
 31
0.0
  0
SPLINE
  5
7EE
330
1B
100
AcDbEntity
  8
0
  6
Continuous
 62
     0
100
AcDbSpline
210
0.0
220
0.0
230
1.0
 70
     8
 71
     3
 72
     8
 73
     4
 74
     2
 42
0.0000000001
 43
0.0000000001
 44
0.0000000001
 12
-0.0151789658860566
 22
-0.9998847928609727
 32
0.0
 13
-0.0067905697521219
 23
-0.999976943815427
 33
0.0
 40
0.0
 40
0.0
 40
0.0
 40
0.0
 40
0.0016854046563447
 40
0.0016854046563447
 40
0.0016854046563447
 40
0.0016854046563447
 10
17.4410578142
 20
10.5771008753
 30
0.0
 10
17.4410492866334
 20
10.57653913847143
 30
0.0
 10
17.44104328285263
 20
10.57597735909911
 30
0.0
 10
17.4410394679
 20
10.5754155705
 30
0.0
 11
17.4410578142
 21
10.5771008753
 31
0.0
 11
17.4410394679
 21
10.5754155705
 31
0.0
  0
SPLINE
  5
7EF
330
1B
100
AcDbEntity
  8
0
  6
Continuous
 62
     0
100
AcDbSpline
210
0.0
220
0.0
230
1.0
 70
     8
 71
     3
 72
     8
 73
     4
 74
     2
 42
0.0000000001
 43
0.0000000001
 44
0.0000000001
 12
-0.0067905267043844
 22
-0.9999769441077512
 32
0.0
 13
0.0
 23
-1.0
 33
0.0
 40
0.0
 40
0.0
 40
0.0
 40
0.0
 40
0.0015983384791753
 40
0.0015983384791753
 40
0.0015983384791753
 40
0.0015983384791753
 10
17.4410394679
 20
10.5754155705
 30
0.0
 10
17.44103585004662
 20
10.57488280329065
 30
0.0
 10
17.4410342006
 20
10.57435002019306
 30
0.0
 10
17.4410342006
 20
10.5738172407
 30
0.0
 11
17.4410394679
 21
10.5754155705
 31
0.0
 11
17.4410342006
 21
10.5738172407
 31
0.0
  0
SPLINE
  5
7F0
330
1B
100
AcDbEntity
  8
0
  6
Continuous
 62
     0
100
AcDbSpline
210
0.0
220
0.0
230
1.0
 70
     8
 71
     3
 72
     8
 73
     4
 74
     2
 42
0.0000000001
 43
0.0000000001
 44
0.0000000001
 12
-0.3130109753599805
 22
-0.9497495087148999
 32
0.0
 13
-0.2754151511302846
 23
-0.9613253843147401
 33
0.0
 40
0.0
 40
0.0
 40
0.0
 40
0.0
 40
0.0066438903559259
 40
0.0066438903559259
 40
0.0066438903559259
 40
0.0066438903559259
 10
17.4497081797
 20
10.6296599304
 30
0.0
 10
17.4490149761665
 20
10.62755658653283
 30
0.0
 10
17.44836311488882
 20
10.62543916844992
 30
0.0
 10
17.4477531722
 20
10.6233101883
 30
0.0
 11
17.4497081797
 21
10.6296599304
 31
0.0
 11
17.4477531722
 21
10.6233101883
 31
0.0
  0
SPLINE
  5
7F1
330
1B
100
AcDbEntity
  8
0
  6
Continuous
 62
     0
100
AcDbSpline
210
0.0
220
0.0
230
1.0
 70
     8
 71
     3
 72
    13
 73
     9
 74
     7
 42
0.0000000001
 43
0.0000000001
 44
0.0000000001
 12
-0.2754151484162187
 22
-0.961325385092307
 32
0.0
 13
-0.0498164062298455
 23
-0.9987583920400082
 33
0.0
 40
0.0
 40
0.0
 40
0.0
 40
0.0
 40
0.0066128335991036
 40
0.0132287979758185
 40
0.019881350183449
 40
0.0265925259735795
 40
0.0333422246097092
 40
0.0400945049752382
 40
0.0400945049752382
 40
0.0400945049752382
 40
0.0400945049752382
 10
17.4477531722
 20
10.6233101883
 30
0.0
 10
17.44714608068428
 20
10.62119116003126
 30
0.0
 10
17.44601431826296
 20
10.61692790580214
 30
0.0
 10
17.44456374410028
 20
10.61045987671016
 30
0.0
 10
17.44335844234882
 20
10.60390825518457
 30
0.0
 10
17.44240009927746
 20
10.59727094453537
 30
0.0
 10
17.44169246358277
 20
10.59056893427107
 30
0.0
 10
17.44138742748055
 20
10.58607743206016
 30
0.0
 10
17.4412753027
 20
10.5838294665
 30
0.0
 11
17.4477531722
 21
10.6233101883
 31
0.0
 11
17.44605620859999
 21
10.616918797
 31
0.0
 11
17.4446080954
 21
10.6104632604
 31
0.0
 11
17.4434039691
 21
10.6039205904
 31
0.0
 11
17.4424442222
 21
10.5972783945
 31
0.0
 11
17.4417344505
 21
10.590566118
 31
0.0
 11
17.4412753027
 21
10.5838294665
 31
0.0
  0
SPLINE
  5
7F2
330
1B
100
AcDbEntity
  8
0
  6
Continuous
 62
     0
100
AcDbSpline
210
0.0
220
0.0
230
1.0
 70
     8
 71
     3
 72
     8
 73
     4
 74
     2
 42
0.0000000001
 43
0.0000000001
 44
0.0000000001
 12
-0.0498164075615976
 22
-0.9987583919735827
 32
0.0
 13
-0.0151789956584927
 23
-0.9998847924090052
 33
0.0
 40
0.0
 40
0.0
 40
0.0
 40
0.0
 40
0.0067321051783142
 40
0.0067321051783142
 40
0.0067321051783142
 40
0.0067321051783142
 10
17.4412753027
 20
10.5838294665
 30
0.0
 10
17.44116351293489
 20
10.5815882176525
 30
0.0
 10
17.44109187789842
 20
10.57934465182956
 30
0.0
 10
17.4410578157
 20
10.5771008753
 30
0.0
 11
17.4412753027
 21
10.5838294665
 31
0.0
 11
17.4410578157
 21
10.5771008753
 31
0.0
  0
SPLINE
  5
7F3
330
1B
100
AcDbEntity
  8
0
  6
Continuous
 62
     0
100
AcDbSpline
210
0.0
220
0.0
230
1.0
 70
     8
 71
     3
 72
     9
 73
     5
 74
     3
 42
0.0000000001
 43
0.0000000001
 44
0.0000000001
 12
-1.0
 22
0.0
 32
0.0
 13
0.0
 23
-1.0
 33
0.0
 40
0.0
 40
0.0
 40
0.0
 40
0.0
 40
0.0000745198046205
 40
0.0002781623348441
 40
0.0002781623348441
 40
0.0002781623348441
 40
0.0002781623348441
 10
17.4410578142
 20
10.5208016627
 30
0.0
 10
17.44103297426512
 20
10.5208016627
 30
0.0
 10
17.44104931400705
 20
10.5206555744576
 30
0.0
 10
17.4410342006
 20
10.52059374214341
 30
0.0
 10
17.4410342006
 20
10.5205258613
 30
0.0
 11
17.4410578142
 21
10.5208016627
 31
0.0
 11
17.4410394717
 21
10.5207294356
 31
0.0
 11
17.4410342006
 21
10.5205258613
 31
0.0
  0
SPLINE
  5
7F4
330
1B
100
AcDbEntity
  8
0
  6
Continuous
 62
     0
100
AcDbSpline
210
0.0
220
0.0
230
1.0
 70
     8
 71
     3
 72
    13
 73
     9
 74
     7
 42
0.0000000001
 43
0.0000000001
 44
0.0000000001
 12
0.0498163277626408
 22
-0.9987583959538188
 32
0.0
 13
0.2754151507461508
 23
-0.9613253844247926
 33
0.0
 40
0.0
 40
0.0
 40
0.0
 40
0.0
 40
0.0067659553195364
 40
0.0135207846626994
 40
0.0202318060516529
 40
0.02687860481079
 40
0.033487193889844
 40
0.0400945051315038
 40
0.0400945051315038
 40
0.0400945051315038
 40
0.0400945051315038
 10
17.4412753027
 20
10.4943880321
 30
0.0
 10
17.44138765438261
 20
10.49213551387265
 30
0.0
 10
17.44169328014835
 20
10.48763776179833
 30
0.0
 10
17.44240218002857
 20
10.48092962972603
 30
0.0
 10
17.44336119804294
 20
10.47429267811919
 30
0.0
 10
17.44456629821083
 20
10.46774552567458
 30
0.0
 10
17.44601585965953
 20
10.46128364615615
 30
0.0
 10
17.44714658765945
 20
10.45702456897313
 30
0.0
 10
17.4477531722
 20
10.4549073103
 30
0.0
 11
17.4412753027
 21
10.4943880321
 31
0.0
 11
17.4417356327
 21
10.4876377545
 31
0.0
 11
17.4424465561
 21
10.4809204405
 31
0.0
 11
17.4434069927
 21
10.4742785003
 31
0.0
 11
17.4446106756
 21
10.4677415988
 31
0.0
 11
17.4460575219
 21
10.4612933366
 31
0.0
 11
17.4477531722
 21
10.4549073103
 31
0.0
  0
SPLINE
  5
7F5
330
1B
100
AcDbEntity
  8
0
  6
Continuous
 62
     0
100
AcDbSpline
210
0.0
220
0.0
230
1.0
 70
     8
 71
     3
 72
     8
 73
     4
 74
     2
 42
0.0000000001
 43
0.0000000001
 44
0.0000000001
 12
0.2754151491759291
 22
-0.9613253848746536
 32
0.0
 13
0.3130109708854633
 23
-0.949749510189576
 33
0.0
 40
0.0
 40
0.0
 40
0.0
 40
0.0
 40
0.0066438903559259
 40
0.0066438903559259
 40
0.0066438903559259
 40
0.0066438903559259
 10
17.4477531722
 20
10.4549073103
 30
0.0
 10
17.44836311488449
 20
10.45277833014884
 30
0.0
 10
17.44901497617641
 20
10.45066091207043
 30
0.0
 10
17.4497081797
 20
10.4485575682
 30
0.0
 11
17.4477531722
 21
10.4549073103
 31
0.0
 11
17.4497081797
 21
10.4485575682
 31
0.0
  0
SPLINE
  5
7F6
330
1B
100
AcDbEntity
  8
0
  6
Continuous
 62
     0
100
AcDbSpline
210
0.0
220
0.0
230
1.0
 70
     8
 71
     3
 72
     8
 73
     4
 74
     2
 42
0.0000000001
 43
0.0000000001
 44
0.0000000001
 12
0.0
 22
-1.0
 32
0.0
 13
0.0067905267043844
 23
-0.9999769441077512
 33
0.0
 40
0.0
 40
0.0
 40
0.0
 40
0.0
 40
0.001598338479177
 40
0.001598338479177
 40
0.001598338479177
 40
0.001598338479177
 10
17.4410342006
 20
10.5044002579
 30
0.0
 10
17.4410342006
 20
10.50386747840694
 30
0.0
 10
17.44103585004662
 20
10.50333469530935
 30
0.0
 10
17.4410394679
 20
10.5028019281
 30
0.0
 11
17.4410342006
 21
10.5044002579
 31
0.0
 11
17.4410394679
 21
10.5028019281
 31
0.0
  0
SPLINE
  5
7F7
330
1B
100
AcDbEntity
  8
0
  6
Continuous
 62
     0
100
AcDbSpline
210
0.0
220
0.0
230
1.0
 70
     8
 71
     3
 72
     8
 73
     4
 74
     2
 42
0.0000000001
 43
0.0000000001
 44
0.0000000001
 12
0.0067905697521219
 22
-0.999976943815427
 32
0.0
 13
0.0151789658860566
 23
-0.9998847928609727
 33
0.0
 40
0.0
 40
0.0
 40
0.0
 40
0.0
 40
0.0016854046552562
 40
0.0016854046552562
 40
0.0016854046552562
 40
0.0016854046552562
 10
17.4410394679
 20
10.5028019281
 30
0.0
 10
17.44104328285262
 20
10.50224013950125
 30
0.0
 10
17.44104928653341
 20
10.5016783601282
 30
0.0
 10
17.4410578141
 20
10.5011166233
 30
0.0
 11
17.4410394679
 21
10.5028019281
 31
0.0
 11
17.4410578141
 21
10.5011166233
 31
0.0
  0
SPLINE
  5
7F8
330
1B
100
AcDbEntity
  8
0
  6
Continuous
 62
     0
100
AcDbSpline
210
0.0
220
0.0
230
1.0
 70
     8
 71
     3
 72
     8
 73
     4
 74
     2
 42
0.0000000001
 43
0.0000000001
 44
0.0000000001
 12
-0.0498164075615976
 22
0.9987583919735827
 32
0.0
 13
-0.0151789956584927
 23
0.9998847924090052
 33
0.0
 40
0.0
 40
0.0
 40
0.0
 40
0.0
 40
0.0067321051783142
 40
0.0067321051783142
 40
0.0067321051783142
 40
0.0067321051783142
 10
17.4412753027
 20
10.4943880321
 30
0.0
 10
17.44116351293489
 20
10.4966292809475
 30
0.0
 10
17.44109187789842
 20
10.49887284677043
 30
0.0
 10
17.4410578157
 20
10.5011166233
 30
0.0
 11
17.4412753027
 21
10.4943880321
 31
0.0
 11
17.4410578157
 21
10.5011166233
 31
0.0
  0
TEXT
  5
809
330
1B
100
AcDbEntity
  8
0
  6
Continuous
 62
     0
100
AcDbText
 10
16.1760022457
 20
2.7706779629
 30
0.0
 40
0.15625
  1
0.49
 41
0.8
100
AcDbText
  0
TEXT
  5
80A
330
1B
100
AcDbEntity
  8
0
  6
Continuous
 62
     0
100
AcDbText
 10
16.3010022457
 20
2.536302962899999
 30
0.0
 40
0.15625
  1
12,4
 41
0.8
100
AcDbText
  0
TEXT
  5
80B
330
1B
100
AcDbEntity
  8
0
  6
Continuous
 62
     0
100
AcDbText
 10
16.1760022457
 20
2.536302962899999
 30
0.0
 40
0.15625
  1
[
 41
0.8
100
AcDbText
  0
TEXT
  5
80C
330
1B
100
AcDbEntity
  8
0
  6
Continuous
 62
     0
100
AcDbText
 10
16.8010022457
 20
2.536302962899999
 30
0.0
 40
0.15625
  1
]
 41
0.8
100
AcDbText
  0
LINE
  5
80D
330
1B
100
AcDbEntity
  8
0
  6
Continuous
 62
     0
100
AcDbLine
 10
17.4643869565
 20
5.1766327561
 30
0.0
 11
17.4643869565
 21
2.7238029629
 31
0.0
  0
LINE
  5
80E
330
1B
100
AcDbEntity
  8
0
  6
Continuous
 62
     0
100
AcDbLine
 10
17.9510869565
 20
3.626608749299999
 30
0.0
 11
17.9510869565
 21
2.7238029629
 31
0.0
  0
LINE
  5
80F
330
1B
100
AcDbEntity
  8
0
  6
Continuous
 62
     0
100
AcDbLine
 10
17.4643869565
 20
2.8488029629
 30
0.0
 11
17.7077369565
 21
2.8488029629
 31
0.0
  0
LINE
  5
810
330
1B
100
AcDbEntity
  8
0
  6
Continuous
 62
     0
100
AcDbLine
 10
17.7077369565
 20
2.8488029629
 30
0.0
 11
17.0041272457
 21
2.8488029629
 31
0.0
  0
LINE
  5
811
330
1B
100
AcDbEntity
  8
0
  6
Continuous
 62
     0
100
AcDbLine
 10
17.9510869565
 20
2.8488029629
 30
0.0
 11
17.7077369565
 21
2.8488029629
 31
0.0
  0
INSERT
  5
812
330
1B
100
AcDbEntity
  8
0
  6
Continuous
 62
     0
100
AcDbBlockReference
  2
_FILLED
 10
17.4643869565
 20
2.8488029629
 30
0.0
 41
0.1875
 42
0.1875
 43
0.1875
 50
180.0
  0
INSERT
  5
813
330
1B
100
AcDbEntity
  8
0
  6
Continuous
 62
     0
100
AcDbBlockReference
  2
_FILLED
 10
17.9510869565
 20
2.8488029629
 30
0.0
 41
0.1875
 42
0.1875
 43
0.1875
  0
TEXT
  5
814
330
1B
100
AcDbEntity
  8
0
  6
Continuous
 62
     0
100
AcDbText
 10
18.4589780097
 20
13.8456825675
 30
0.0
 40
0.15625
  1
0.49
 41
0.8
100
AcDbText
  0
TEXT
  5
815
330
1B
100
AcDbEntity
  8
0
  6
Continuous
 62
     0
100
AcDbText
 10
18.5839780097
 20
13.6113075675
 30
0.0
 40
0.15625
  1
12,6
 41
0.8
100
AcDbText
  0
TEXT
  5
816
330
1B
100
AcDbEntity
  8
0
  6
Continuous
 62
     0
100
AcDbText
 10
18.4589780097
 20
13.6113075675
 30
0.0
 40
0.15625
  1
[
 41
0.8
100
AcDbText
  0
TEXT
  5
817
330
1B
100
AcDbEntity
  8
0
  6
Continuous
 62
     0
100
AcDbText
 10
19.0839780097
 20
13.6113075675
 30
0.0
 40
0.15625
  1
]
 41
0.8
100
AcDbText
  0
LINE
  5
818
330
1B
100
AcDbEntity
  8
0
  6
Continuous
 62
     0
100
AcDbLine
 10
17.9510869565
 20
12.9371087493
 30
0.0
 11
17.9510869565
 21
14.0488075675
 31
0.0
  0
LINE
  5
819
330
1B
100
AcDbEntity
  8
0
  6
Continuous
 62
     0
100
AcDbLine
 10
17.4564869565
 20
12.2443051696
 30
0.0
 11
17.4564869565
 21
14.0488075675
 31
0.0
  0
LINE
  5
81A
330
1B
100
AcDbEntity
  8
0
  6
Continuous
 62
     0
100
AcDbLine
 10
17.9510869565
 20
13.9238075675
 30
0.0
 11
17.7037869565
 21
13.9238075675
 31
0.0
  0
LINE
  5
81B
330
1B
100
AcDbEntity
  8
0
  6
Continuous
 62
     0
100
AcDbLine
 10
17.7037869565
 20
13.9238075675
 30
0.0
 11
18.3808530097
 21
13.9238075675
 31
0.0
  0
LINE
  5
81C
330
1B
100
AcDbEntity
  8
0
  6
Continuous
 62
     0
100
AcDbLine
 10
17.4564869565
 20
13.9238075675
 30
0.0
 11
17.7037869565
 21
13.9238075675
 31
0.0
  0
INSERT
  5
81D
330
1B
100
AcDbEntity
  8
0
  6
Continuous
 62
     0
100
AcDbBlockReference
  2
_FILLED
 10
17.9510869565
 20
13.9238075675
 30
0.0
 41
0.1875
 42
0.1875
 43
0.1875
  0
INSERT
  5
81E
330
1B
100
AcDbEntity
  8
0
  6
Continuous
 62
     0
100
AcDbBlockReference
  2
_FILLED
 10
17.4564869565
 20
13.9238075675
 30
0.0
 41
0.1875
 42
0.1875
 43
0.1875
 50
180.0
  0
TEXT
  5
81F
330
1B
100
AcDbEntity
  8
0
  6
Continuous
 62
     0
100
AcDbText
 10
17.0833769245
 20
14.7152484949
 30
0.0
 40
0.15625
  1
1.00
 41
0.8
100
AcDbText
  0
TEXT
  5
820
330
1B
100
AcDbEntity
  8
0
  6
Continuous
 62
     0
100
AcDbText
 10
17.2083769245
 20
14.4808734949
 30
0.0
 40
0.15625
  1
25,4
 41
0.8
100
AcDbText
  0
TEXT
  5
821
330
1B
100
AcDbEntity
  8
0
  6
Continuous
 62
     0
100
AcDbText
 10
17.0833769245
 20
14.4808734949
 30
0.0
 40
0.15625
  1
[
 41
0.8
100
AcDbText
  0
TEXT
  5
822
330
1B
100
AcDbEntity
  8
0
  6
Continuous
 62
     0
100
AcDbText
 10
17.7083769245
 20
14.4808734949
 30
0.0
 40
0.15625
  1
]
 41
0.8
100
AcDbText
  0
LINE
  5
823
330
1B
100
AcDbEntity
  8
0
  6
Continuous
 62
     0
100
AcDbLine
 10
16.9510869565
 20
13.1016087493
 30
0.0
 11
16.9510869565
 21
14.9183734949
 31
0.0
  0
LINE
  5
824
330
1B
100
AcDbEntity
  8
0
  6
Continuous
 62
     0
100
AcDbLine
 10
17.9510869565
 20
12.9371087493
 30
0.0
 11
17.9510869565
 21
14.9183734949
 31
0.0
  0
LINE
  5
825
330
1B
100
AcDbEntity
  8
0
  6
Continuous
 62
     0
100
AcDbLine
 10
16.9510869565
 20
14.7933734949
 30
0.0
 11
16.6510869565
 21
14.7933734949
 31
0.0
  0
LINE
  5
826
330
1B
100
AcDbEntity
  8
0
  6
Continuous
 62
     0
100
AcDbLine
 10
17.9510869565
 20
14.7933734949
 30
0.0
 11
18.2510869565
 21
14.7933734949
 31
0.0
  0
INSERT
  5
827
330
1B
100
AcDbEntity
  8
0
  6
Continuous
 62
     0
100
AcDbBlockReference
  2
_FILLED
 10
16.9510869565
 20
14.7933734949
 30
0.0
 41
0.1875
 42
0.1875
 43
0.1875
  0
INSERT
  5
828
330
1B
100
AcDbEntity
  8
0
  6
Continuous
 62
     0
100
AcDbBlockReference
  2
_FILLED
 10
17.9510869565
 20
14.7933734949
 30
0.0
 41
0.1875
 42
0.1875
 43
0.1875
 50
180.0
  0
TEXT
  5
829
330
1B
100
AcDbEntity
  8
0
  6
Continuous
 62
     0
100
AcDbText
 10
9.9172009115
 20
2.930929786
 30
0.0
 40
0.15625
  1
%%c
 41
1.333333333299999
100
AcDbText
  0
TEXT
  5
82A
330
1B
100
AcDbEntity
  8
0
  6
Continuous
 62
     0
100
AcDbText
 10
10.1255342448
 20
2.930929786
 30
0.0
 40
0.15625
  1
0.625
 41
0.8
100
AcDbText
  0
TEXT
  5
82B
330
1B
100
AcDbEntity
  8
0
  6
Continuous
 62
     0
100
AcDbText
 10
10.2505342448
 20
2.696554786
 30
0.0
 40
0.15625
  1
15,88
 41
0.8
100
AcDbText
  0
TEXT
  5
82C
330
1B
100
AcDbEntity
  8
0
  6
Continuous
 62
     0
100
AcDbText
 10
10.1255342448
 20
2.696554786
 30
0.0
 40
0.15625
  1
[
 41
0.8
100
AcDbText
  0
TEXT
  5
82D
330
1B
100
AcDbEntity
  8
0
  6
Continuous
 62
     0
100
AcDbText
 10
10.8755342448
 20
2.696554786
 30
0.0
 40
0.15625
  1
]
 41
0.8
100
AcDbText
  0
LINE
  5
82E
330
1B
100
AcDbEntity
  8
0
  6
Continuous
 62
     0
100
AcDbLine
 10
8.2443107902
 20
3.87644921
 30
0.0
 11
7.9774810237
 21
4.0391087493
 31
0.0
  0
LINE
  5
82F
330
1B
100
AcDbEntity
  8
0
  6
Continuous
 62
     0
100
AcDbLine
 10
7.9774810237
 20
4.0391087493
 30
0.0
 11
9.6672009115
 21
3.009054786
 31
0.0
  0
LINE
  5
830
330
1B
100
AcDbEntity
  8
0
  6
Continuous
 62
     0
100
AcDbLine
 10
9.6672009115
 20
3.009054786
 30
0.0
 11
9.8390759115
 21
3.009054786
 31
0.0
  0
LINE
  5
831
330
1B
100
AcDbEntity
  8
0
  6
Continuous
 62
     0
100
AcDbLine
 10
7.7106512572
 20
4.2017682886
 30
0.0
 11
7.9774810237
 21
4.0391087493
 31
0.0
  0
INSERT
  5
832
330
1B
100
AcDbEntity
  8
0
  6
Continuous
 62
     0
100
AcDbBlockReference
  2
_FILLED
 10
8.2443107902
 20
3.87644921
 30
0.0
 41
0.1875
 42
0.1875
 43
0.1875
 50
328.633497
  0
INSERT
  5
833
330
1B
100
AcDbEntity
  8
0
  6
Continuous
 62
     0
100
AcDbBlockReference
  2
_FILLED
 10
7.7106512572
 20
4.2017682886
 30
0.0
 41
0.1875
 42
0.1875
 43
0.1875
 50
148.633497
  0
TEXT
  5
834
330
1B
100
AcDbEntity
  8
0
  6
Continuous
 62
     0
100
AcDbText
 10
10.6363356013
 20
5.751669764099999
 30
0.0
 40
0.15625
  1
%%c
 41
1.333333333299999
100
AcDbText
  0
TEXT
  5
835
330
1B
100
AcDbEntity
  8
0
  6
Continuous
 62
     0
100
AcDbText
 10
10.8446689346
 20
5.751669764099999
 30
0.0
 40
0.15625
  1
0.313
 41
0.8
100
AcDbText
  0
TEXT
  5
836
330
1B
100
AcDbEntity
  8
0
  6
Continuous
 62
     0
100
AcDbText
 10
10.9696689346
 20
5.517294764099999
 30
0.0
 40
0.15625
  1
7,94
 41
0.8
100
AcDbText
  0
TEXT
  5
837
330
1B
100
AcDbEntity
  8
0
  6
Continuous
 62
     0
100
AcDbText
 10
10.8446689346
 20
5.517294764099999
 30
0.0
 40
0.15625
  1
[
 41
0.8
100
AcDbText
  0
TEXT
  5
838
330
1B
100
AcDbEntity
  8
0
  6
Continuous
 62
     0
100
AcDbText
 10
11.4696689346
 20
5.517294764099999
 30
0.0
 40
0.15625
  1
]
 41
0.8
100
AcDbText
  0
LINE
  5
839
330
1B
100
AcDbEntity
  8
0
  6
Continuous
 62
     0
100
AcDbLine
 10
8.1152068375
 20
4.6129034829
 30
0.0
 11
10.3863356013
 21
5.829794764099999
 31
0.0
  0
LINE
  5
83A
330
1B
100
AcDbEntity
  8
0
  6
Continuous
 62
     0
100
AcDbLine
 10
10.3863356013
 20
5.829794764099999
 30
0.0
 11
10.5582106013
 21
5.829794764099999
 31
0.0
  0
INSERT
  5
83B
330
1B
100
AcDbEntity
  8
0
  6
Continuous
 62
     0
100
AcDbBlockReference
  2
_FILLED
 10
8.1152068375
 20
4.6129034829
 30
0.0
 41
0.1875
 42
0.1875
 43
0.1875
 50
208.182808
  0
TEXT
  5
83C
330
1B
100
AcDbEntity
  8
0
  6
Continuous
 62
     0
100
AcDbText
 10
3.0780378101
 20
7.434618261399999
 30
0.0
 40
0.15625
  1
7.50
 41
0.8
100
AcDbText
  0
TEXT
  5
83D
330
1B
100
AcDbEntity
  8
0
  6
Continuous
 62
     0
100
AcDbText
 10
3.2030378101
 20
7.200243261399999
 30
0.0
 40
0.15625
  1
190,5
 41
0.8
100
AcDbText
  0
TEXT
  5
83E
330
1B
100
AcDbEntity
  8
0
  6
Continuous
 62
     0
100
AcDbText
 10
3.0780378101
 20
7.200243261399999
 30
0.0
 40
0.15625
  1
[
 41
0.8
100
AcDbText
  0
TEXT
  5
83F
330
1B
100
AcDbEntity
  8
0
  6
Continuous
 62
     0
100
AcDbText
 10
3.8280378101
 20
7.200243261399999
 30
0.0
 40
0.15625
  1
]
 41
0.8
100
AcDbText
  0
LINE
  5
840
330
1B
100
AcDbEntity
  8
0
  6
Continuous
 62
     0
100
AcDbLine
 10
5.210906486199999
 20
4.5391087493
 30
0.0
 11
3.3905378101
 21
4.5391087493
 31
0.0
  0
LINE
  5
841
330
1B
100
AcDbEntity
  8
0
  6
Continuous
 62
     0
100
AcDbLine
 10
5.167900431499999
 20
12.0391087493
 30
0.0
 11
3.3905378101
 21
12.0391087493
 31
0.0
  0
LINE
  5
842
330
1B
100
AcDbEntity
  8
0
  6
Continuous
 62
     0
100
AcDbLine
 10
3.5155378101
 20
4.5391087493
 30
0.0
 11
3.5155378101
 21
7.122118261399999
 31
0.0
  0
LINE
  5
843
330
1B
100
AcDbEntity
  8
0
  6
Continuous
 62
     0
100
AcDbLine
 10
3.5155378101
 20
12.0391087493
 30
0.0
 11
3.5155378101
 21
7.668993261399999
 31
0.0
  0
INSERT
  5
844
330
1B
100
AcDbEntity
  8
0
  6
Continuous
 62
     0
100
AcDbBlockReference
  2
_FILLED
 10
3.5155378101
 20
4.5391087493
 30
0.0
 41
0.1875
 42
0.1875
 43
0.1875
 50
270.0
  0
INSERT
  5
845
330
1B
100
AcDbEntity
  8
0
  6
Continuous
 62
     0
100
AcDbBlockReference
  2
_FILLED
 10
3.5155378101
 20
12.0391087493
 30
0.0
 41
0.1875
 42
0.1875
 43
0.1875
 50
90.0
  0
TEXT
  5
846
330
1B
100
AcDbEntity
  8
0
  6
Continuous
 62
     0
100
AcDbText
 10
2.715417037099999
 20
12.6210916913
 30
0.0
 40
0.15625
  1
1.00
 41
0.8
100
AcDbText
  0
TEXT
  5
847
330
1B
100
AcDbEntity
  8
0
  6
Continuous
 62
     0
100
AcDbText
 10
2.840417037099999
 20
12.3867166913
 30
0.0
 40
0.15625
  1
25,4
 41
0.8
100
AcDbText
  0
TEXT
  5
848
330
1B
100
AcDbEntity
  8
0
  6
Continuous
 62
     0
100
AcDbText
 10
2.715417037099999
 20
12.3867166913
 30
0.0
 40
0.15625
  1
[
 41
0.8
100
AcDbText
  0
TEXT
  5
849
330
1B
100
AcDbEntity
  8
0
  6
Continuous
 62
     0
100
AcDbText
 10
3.340417037099999
 20
12.3867166913
 30
0.0
 40
0.15625
  1
]
 41
0.8
100
AcDbText
  0
LINE
  5
84A
330
1B
100
AcDbEntity
  8
0
  6
Continuous
 62
     0
100
AcDbLine
 10
9.414981023699999
 20
13.0391087493
 30
0.0
 11
2.965417037099999
 21
13.0391087493
 31
0.0
  0
LINE
  5
84B
330
1B
100
AcDbEntity
  8
0
  6
Continuous
 62
     0
100
AcDbLine
 10
5.1851028534
 20
12.0391087493
 30
0.0
 11
2.965417037099999
 21
12.0391087493
 31
0.0
  0
LINE
  5
84C
330
1B
100
AcDbEntity
  8
0
  6
Continuous
 62
     0
100
AcDbLine
 10
3.090417037099999
 20
13.0391087493
 30
0.0
 11
3.090417037099999
 21
13.3391087493
 31
0.0
  0
LINE
  5
84D
330
1B
100
AcDbEntity
  8
0
  6
Continuous
 62
     0
100
AcDbLine
 10
3.090417037099999
 20
12.0391087493
 30
0.0
 11
3.090417037099999
 21
11.7391087493
 31
0.0
  0
INSERT
  5
84E
330
1B
100
AcDbEntity
  8
0
  6
Continuous
 62
     0
100
AcDbBlockReference
  2
_FILLED
 10
3.090417037099999
 20
13.0391087493
 30
0.0
 41
0.1875
 42
0.1875
 43
0.1875
 50
270.0
  0
INSERT
  5
84F
330
1B
100
AcDbEntity
  8
0
  6
Continuous
 62
     0
100
AcDbBlockReference
  2
_FILLED
 10
3.090417037099999
 20
12.0391087493
 30
0.0
 41
0.1875
 42
0.1875
 43
0.1875
 50
90.0
  0
TEXT
  5
850
330
1B
100
AcDbEntity
  8
0
  6
Continuous
 62
     0
100
AcDbText
 10
1.9514677618
 20
8.178579614
 30
0.0
 40
0.15625
  1
9.50
 41
0.8
100
AcDbText
  0
TEXT
  5
851
330
1B
100
AcDbEntity
  8
0
  6
Continuous
 62
     0
100
AcDbText
 10
2.0764677618
 20
7.944204613999999
 30
0.0
 40
0.15625
  1
241,3
 41
0.8
100
AcDbText
  0
TEXT
  5
852
330
1B
100
AcDbEntity
  8
0
  6
Continuous
 62
     0
100
AcDbText
 10
1.9514677618
 20
7.944204613999999
 30
0.0
 40
0.15625
  1
[
 41
0.8
100
AcDbText
  0
TEXT
  5
853
330
1B
100
AcDbEntity
  8
0
  6
Continuous
 62
     0
100
AcDbText
 10
2.7014677618
 20
7.944204613999999
 30
0.0
 40
0.15625
  1
]
 41
0.8
100
AcDbText
  0
LINE
  5
854
330
1B
100
AcDbEntity
  8
0
  6
Continuous
 62
     0
100
AcDbLine
 10
6.1549810237
 20
13.0391087493
 30
0.0
 11
2.2639677618
 21
13.0391087493
 31
0.0
  0
LINE
  5
855
330
1B
100
AcDbEntity
  8
0
  6
Continuous
 62
     0
100
AcDbLine
 10
4.4149810237
 20
3.539108749299999
 30
0.0
 11
2.2639677618
 21
3.539108749299999
 31
0.0
  0
LINE
  5
856
330
1B
100
AcDbEntity
  8
0
  6
Continuous
 62
     0
100
AcDbLine
 10
2.3889677618
 20
13.0391087493
 30
0.0
 11
2.3889677618
 21
8.412954614
 31
0.0
  0
LINE
  5
857
330
1B
100
AcDbEntity
  8
0
  6
Continuous
 62
     0
100
AcDbLine
 10
2.3889677618
 20
3.539108749299999
 30
0.0
 11
2.3889677618
 21
7.866079613999999
 31
0.0
  0
INSERT
  5
858
330
1B
100
AcDbEntity
  8
0
  6
Continuous
 62
     0
100
AcDbBlockReference
  2
_FILLED
 10
2.3889677618
 20
13.0391087493
 30
0.0
 41
0.1875
 42
0.1875
 43
0.1875
 50
90.0
  0
INSERT
  5
859
330
1B
100
AcDbEntity
  8
0
  6
Continuous
 62
     0
100
AcDbBlockReference
  2
_FILLED
 10
2.3889677618
 20
3.539108749299999
 30
0.0
 41
0.1875
 42
0.1875
 43
0.1875
 50
270.0
  0
TEXT
  5
85A
330
1B
100
AcDbEntity
  8
0
  6
Continuous
 62
     0
100
AcDbText
 10
6.0513530275
 20
2.307768019799999
 30
0.0
 40
0.15625
  1
2.75
 41
0.8
100
AcDbText
  0
TEXT
  5
85B
330
1B
100
AcDbEntity
  8
0
  6
Continuous
 62
     0
100
AcDbText
 10
6.1763530275
 20
2.073393019799999
 30
0.0
 40
0.15625
  1
69,9
 41
0.8
100
AcDbText
  0
TEXT
  5
85C
330
1B
100
AcDbEntity
  8
0
  6
Continuous
 62
     0
100
AcDbText
 10
6.0513530275
 20
2.073393019799999
 30
0.0
 40
0.15625
  1
[
 41
0.8
100
AcDbText
  0
TEXT
  5
85D
330
1B
100
AcDbEntity
  8
0
  6
Continuous
 62
     0
100
AcDbText
 10
6.6763530275
 20
2.073393019799999
 30
0.0
 40
0.15625
  1
]
 41
0.8
100
AcDbText
  0
LINE
  5
85E
330
1B
100
AcDbEntity
  8
0
  6
Continuous
 62
     0
100
AcDbLine
 10
5.2274810237
 20
3.9766087493
 30
0.0
 11
5.2274810237
 21
2.260893019799999
 31
0.0
  0
LINE
  5
85F
330
1B
100
AcDbEntity
  8
0
  6
Continuous
 62
     0
100
AcDbLine
 10
7.9774810237
 20
3.9766087493
 30
0.0
 11
7.9774810237
 21
2.260893019799999
 31
0.0
  0
LINE
  5
860
330
1B
100
AcDbEntity
  8
0
  6
Continuous
 62
     0
100
AcDbLine
 10
5.2274810237
 20
2.385893019799999
 30
0.0
 11
5.9732280275
 21
2.385893019799999
 31
0.0
  0
LINE
  5
861
330
1B
100
AcDbEntity
  8
0
  6
Continuous
 62
     0
100
AcDbLine
 10
7.9774810237
 20
2.385893019799999
 30
0.0
 11
6.8794780275
 21
2.385893019799999
 31
0.0
  0
INSERT
  5
862
330
1B
100
AcDbEntity
  8
0
  6
Continuous
 62
     0
100
AcDbBlockReference
  2
_FILLED
 10
5.2274810237
 20
2.385893019799999
 30
0.0
 41
0.1875
 42
0.1875
 43
0.1875
 50
180.0
  0
INSERT
  5
863
330
1B
100
AcDbEntity
  8
0
  6
Continuous
 62
     0
100
AcDbBlockReference
  2
_FILLED
 10
7.9774810237
 20
2.385893019799999
 30
0.0
 41
0.1875
 42
0.1875
 43
0.1875
  0
TEXT
  5
864
330
1B
100
AcDbEntity
  8
0
  6
Continuous
 62
     0
100
AcDbText
 10
6.6685178584
 20
13.8836519232
 30
0.0
 40
0.15625
  1
3.50
 41
0.8
100
AcDbText
  0
TEXT
  5
865
330
1B
100
AcDbEntity
  8
0
  6
Continuous
 62
     0
100
AcDbText
 10
6.7935178584
 20
13.6492769232
 30
0.0
 40
0.15625
  1
88,9
 41
0.8
100
AcDbText
  0
TEXT
  5
866
330
1B
100
AcDbEntity
  8
0
  6
Continuous
 62
     0
100
AcDbText
 10
6.6685178584
 20
13.6492769232
 30
0.0
 40
0.15625
  1
[
 41
0.8
100
AcDbText
  0
TEXT
  5
867
330
1B
100
AcDbEntity
  8
0
  6
Continuous
 62
     0
100
AcDbText
 10
7.2935178584
 20
13.6492769232
 30
0.0
 40
0.15625
  1
]
 41
0.8
100
AcDbText
  0
LINE
  5
868
330
1B
100
AcDbEntity
  8
0
  6
Continuous
 62
     0
100
AcDbLine
 10
5.2274810237
 20
12.1016087493
 30
0.0
 11
5.2274810237
 21
14.0867769232
 31
0.0
  0
LINE
  5
869
330
1B
100
AcDbEntity
  8
0
  6
Continuous
 62
     0
100
AcDbLine
 10
8.727481023699999
 20
12.1016087493
 30
0.0
 11
8.727481023699999
 21
14.0867769232
 31
0.0
  0
LINE
  5
86A
330
1B
100
AcDbEntity
  8
0
  6
Continuous
 62
     0
100
AcDbLine
 10
5.2274810237
 20
13.9617769232
 30
0.0
 11
6.5903928584
 21
13.9617769232
 31
0.0
  0
LINE
  5
86B
330
1B
100
AcDbEntity
  8
0
  6
Continuous
 62
     0
100
AcDbLine
 10
8.727481023699999
 20
13.9617769232
 30
0.0
 11
7.4966428584
 21
13.9617769232
 31
0.0
  0
INSERT
  5
86C
330
1B
100
AcDbEntity
  8
0
  6
Continuous
 62
     0
100
AcDbBlockReference
  2
_FILLED
 10
5.2274810237
 20
13.9617769232
 30
0.0
 41
0.1875
 42
0.1875
 43
0.1875
 50
180.0
  0
INSERT
  5
86D
330
1B
100
AcDbEntity
  8
0
  6
Continuous
 62
     0
100
AcDbBlockReference
  2
_FILLED
 10
8.727481023699999
 20
13.9617769232
 30
0.0
 41
0.1875
 42
0.1875
 43
0.1875
  0
TEXT
  5
86E
330
1B
100
AcDbEntity
  8
0
  6
Continuous
 62
     0
100
AcDbText
 10
2.951138380099999
 20
13.9317917493
 30
0.0
 40
0.15625
  1
0.90
 41
0.8
100
AcDbText
  0
TEXT
  5
86F
330
1B
100
AcDbEntity
  8
0
  6
Continuous
 62
     0
100
AcDbText
 10
3.076138380099999
 20
13.6974167493
 30
0.0
 40
0.15625
  1
22,86
 41
0.8
100
AcDbText
  0
TEXT
  5
870
330
1B
100
AcDbEntity
  8
0
  6
Continuous
 62
     0
100
AcDbText
 10
2.951138380099999
 20
13.6974167493
 30
0.0
 40
0.15625
  1
[
 41
0.8
100
AcDbText
  0
TEXT
  5
871
330
1B
100
AcDbEntity
  8
0
  6
Continuous
 62
     0
100
AcDbText
 10
3.701138380099999
 20
13.6974167493
 30
0.0
 40
0.15625
  1
]
 41
0.8
100
AcDbText
  0
LINE
  5
872
330
1B
100
AcDbEntity
  8
0
  6
Continuous
 62
     0
100
AcDbLine
 10
4.327481023699999
 20
12.9371087493
 30
0.0
 11
4.327481023699999
 21
14.1349167493
 31
0.0
  0
LINE
  5
873
330
1B
100
AcDbEntity
  8
0
  6
Continuous
 62
     0
100
AcDbLine
 10
5.2274810237
 20
12.1016087493
 30
0.0
 11
5.2274810237
 21
14.1349167493
 31
0.0
  0
LINE
  5
874
330
1B
100
AcDbEntity
  8
0
  6
Continuous
 62
     0
100
AcDbLine
 10
4.327481023699999
 20
14.0099167493
 30
0.0
 11
4.7774810237
 21
14.0099167493
 31
0.0
  0
LINE
  5
875
330
1B
100
AcDbEntity
  8
0
  6
Continuous
 62
     0
100
AcDbLine
 10
4.7774810237
 20
14.0099167493
 30
0.0
 11
3.904263380099999
 21
14.0099167493
 31
0.0
  0
LINE
  5
876
330
1B
100
AcDbEntity
  8
0
  6
Continuous
 62
     0
100
AcDbLine
 10
5.2274810237
 20
14.0099167493
 30
0.0
 11
4.7774810237
 21
14.0099167493
 31
0.0
  0
INSERT
  5
877
330
1B
100
AcDbEntity
  8
0
  6
Continuous
 62
     0
100
AcDbBlockReference
  2
_FILLED
 10
4.327481023699999
 20
14.0099167493
 30
0.0
 41
0.1875
 42
0.1875
 43
0.1875
 50
180.0
  0
INSERT
  5
878
330
1B
100
AcDbEntity
  8
0
  6
Continuous
 62
     0
100
AcDbBlockReference
  2
_FILLED
 10
5.2274810237
 20
14.0099167493
 30
0.0
 41
0.1875
 42
0.1875
 43
0.1875
  0
TEXT
  5
879
330
1B
100
AcDbEntity
  8
0
  6
Continuous
 62
     0
100
AcDbText
 10
6.8197365895
 20
15.1560262253
 30
0.0
 40
0.15625
  1
5.30
 41
0.8
100
AcDbText
  0
TEXT
  5
87A
330
1B
100
AcDbEntity
  8
0
  6
Continuous
 62
     0
100
AcDbText
 10
6.9447365895
 20
14.9216512253
 30
0.0
 40
0.15625
  1
134,6
 41
0.8
100
AcDbText
  0
TEXT
  5
87B
330
1B
100
AcDbEntity
  8
0
  6
Continuous
 62
     0
100
AcDbText
 10
6.8197365895
 20
14.9216512253
 30
0.0
 40
0.15625
  1
[
 41
0.8
100
AcDbText
  0
TEXT
  5
87C
330
1B
100
AcDbEntity
  8
0
  6
Continuous
 62
     0
100
AcDbText
 10
7.5697365895
 20
14.9216512253
 30
0.0
 40
0.15625
  1
]
 41
0.8
100
AcDbText
  0
LINE
  5
87D
330
1B
100
AcDbEntity
  8
0
  6
Continuous
 62
     0
100
AcDbLine
 10
4.327481023699999
 20
12.9371087493
 30
0.0
 11
4.327481023699999
 21
15.3591512253
 31
0.0
  0
LINE
  5
87E
330
1B
100
AcDbEntity
  8
0
  6
Continuous
 62
     0
100
AcDbLine
 10
9.627481023699999
 20
12.9371087493
 30
0.0
 11
9.627481023699999
 21
15.3591512253
 31
0.0
  0
LINE
  5
87F
330
1B
100
AcDbEntity
  8
0
  6
Continuous
 62
     0
100
AcDbLine
 10
4.327481023699999
 20
15.2341512253
 30
0.0
 11
6.7416115895
 21
15.2341512253
 31
0.0
  0
LINE
  5
880
330
1B
100
AcDbEntity
  8
0
  6
Continuous
 62
     0
100
AcDbLine
 10
9.627481023699999
 20
15.2341512253
 30
0.0
 11
7.7728615895
 21
15.2341512253
 31
0.0
  0
INSERT
  5
881
330
1B
100
AcDbEntity
  8
0
  6
Continuous
 62
     0
100
AcDbBlockReference
  2
_FILLED
 10
4.327481023699999
 20
15.2341512253
 30
0.0
 41
0.1875
 42
0.1875
 43
0.1875
 50
180.0
  0
INSERT
  5
882
330
1B
100
AcDbEntity
  8
0
  6
Continuous
 62
     0
100
AcDbBlockReference
  2
_FILLED
 10
9.627481023699999
 20
15.2341512253
 30
0.0
 41
0.1875
 42
0.1875
 43
0.1875
  0
ENDSEC
  0
SECTION
  2
OBJECTS
  0
DICTIONARY
  5
7F9
330
0
100
AcDbDictionary
281
     1
  3
ACAD_COLOR
350
803
  3
ACAD_GROUP
350
7FA
  3
ACAD_LAYOUT
350
804
  3
ACAD_MATERIAL
350
802
  3
ACAD_MLINESTYLE
350
7FB
  3
ACAD_PLOTSETTINGS
350
805
  3
ACAD_PLOTSTYLENAME
350
800
  3
ACDBHEADERROUNDTRIPXREC
350
887
  3
AcDbVariableDictionary
350
883
  0
DICTIONARY
  5
803
102
{ACAD_REACTORS
330
7F9
102
}
330
7F9
100
AcDbDictionary
281
     1
  0
DICTIONARY
  5
7FA
102
{ACAD_REACTORS
330
7F9
102
}
330
7F9
100
AcDbDictionary
281
     1
  0
DICTIONARY
  5
804
102
{ACAD_REACTORS
330
7F9
102
}
330
7F9
100
AcDbDictionary
281
     1
  3
Layout1
350
807
  3
Model
350
806
  0
DICTIONARY
  5
802
102
{ACAD_REACTORS
330
7F9
102
}
330
7F9
100
AcDbDictionary
281
     1
  0
DICTIONARY
  5
7FB
102
{ACAD_REACTORS
330
7F9
102
}
330
7F9
100
AcDbDictionary
281
     1
  3
STANDARD
350
7FC
  0
DICTIONARY
  5
805
102
{ACAD_REACTORS
330
7F9
102
}
330
7F9
100
AcDbDictionary
281
     1
  0
ACDBDICTIONARYWDFLT
  5
800
102
{ACAD_REACTORS
330
7F9
102
}
330
7F9
100
AcDbDictionary
281
     1
  3
Normal
350
801
100
AcDbDictionaryWithDefault
340
801
  0
DICTIONARY
  5
887
102
{ACAD_REACTORS
330
7F9
102
}
330
7F9
100
AcDbDictionary
281
     1
  3
COLORDICT
350
889
  3
MATERIALDICT
350
888
  0
DICTIONARY
  5
883
102
{ACAD_REACTORS
330
7F9
102
}
330
7F9
100
AcDbDictionary
281
     1
  3
DIMASSOC
350
884
  3
PROJECTNAME
350
885
  0
LAYOUT
  5
807
102
{ACAD_XDICTIONARY
360
88C
102
}
102
{ACAD_REACTORS
330
804
102
}
330
804
100
AcDbPlotSettings
  1

  2
\\Usmkevprnt002\USMKEPD0178
  4

  6

 40
0.0
 41
0.0
 42
0.0
 43
0.0
 44
0.0
 45
0.0
 46
0.0
 47
0.0
 48
0.0
 49
0.0
140
0.0
141
0.0
142
1.0
143
1.0
 70
   688
 72
     0
 73
     0
 74
     5
  7

 75
    16
147
1.0
148
0.0
149
0.0
100
AcDbLayout
  1
Layout1
 70
     1
 71
     1
 10
0.0
 20
0.0
 11
12.0
 21
9.0
 12
0.0
 22
0.0
 32
0.0
 14
1.000000000000000E+20
 24
1.000000000000000E+20
 34
1.000000000000000E+20
 15
-1.000000000000000E+20
 25
-1.000000000000000E+20
 35
-1.000000000000000E+20
146
0.0
 13
0.0
 23
0.0
 33
0.0
 16
1.0
 26
0.0
 36
0.0
 17
0.0
 27
1.0
 37
0.0
 76
     0
330
1C
  0
LAYOUT
  5
806
102
{ACAD_XDICTIONARY
360
88A
102
}
102
{ACAD_REACTORS
330
804
102
}
330
804
100
AcDbPlotSettings
  1

  2
\\Usmkevprnt002\USMKEPD0178
  4

  6

 40
0.0
 41
0.0
 42
0.0
 43
0.0
 44
0.0
 45
0.0
 46
0.0
 47
0.0
 48
0.0
 49
0.0
140
0.0
141
0.0
142
1.0
143
1.0
 70
  1712
 72
     0
 73
     0
 74
     0
  7

 75
     0
147
1.0
148
0.0
149
0.0
100
AcDbLayout
  1
Model
 70
     1
 71
     0
 10
0.0
 20
0.0
 11
12.0
 21
9.0
 12
0.0
 22
0.0
 32
0.0
 14
0.0
 24
0.0
 34
0.0
 15
0.0
 25
0.0
 35
0.0
146
0.0
 13
0.0
 23
0.0
 33
0.0
 16
1.0
 26
0.0
 36
0.0
 17
0.0
 27
1.0
 37
0.0
 76
     0
330
1B
  0
MLINESTYLE
  5
7FC
102
{ACAD_REACTORS
330
7FB
102
}
330
7FB
100
AcDbMlineStyle
  2
STANDARD
 70
     0
  3

 62
   256
 51
90.0
 52
90.0
 71
     2
 49
0.5
 62
   256
  6
BYLAYER
 49
-0.5
 62
   256
  6
BYLAYER
  0
ACDBPLACEHOLDER
  5
801
102
{ACAD_REACTORS
330
800
102
}
330
800
  0
XRECORD
  5
889
102
{ACAD_REACTORS
330
887
102
}
330
887
100
AcDbXrecord
280
     1
340
803
  0
XRECORD
  5
888
102
{ACAD_REACTORS
330
887
102
}
330
887
100
AcDbXrecord
280
     1
340
802
  0
DICTIONARYVAR
  5
884
102
{ACAD_REACTORS
330
883
102
}
330
883
100
DictionaryVariables
280
     0
  1
1
  0
DICTIONARYVAR
  5
885
102
{ACAD_REACTORS
330
883
102
}
330
883
100
DictionaryVariables
280
     0
  1

  0
DICTIONARY
  5
88C
330
807
100
AcDbDictionary
280
     1
281
     1
  3
ACAD_XREC_ROUNDTRIP
360
88D
  0
DICTIONARY
  5
88A
330
806
100
AcDbDictionary
280
     1
281
     1
  3
ACAD_XREC_ROUNDTRIP
360
88B
  0
XRECORD
  5
88D
102
{ACAD_REACTORS
330
88C
102
}
330
88C
100
AcDbXrecord
280
     1
102
SHADEPLOT
 70
     0
102
SHADEPLOTRESLEVEL
 70
     2
102
SHADEPLOTCUSTOMDPI
 70
   300
  0
XRECORD
  5
88B
102
{ACAD_REACTORS
330
88A
102
}
330
88A
100
AcDbXrecord
280
     1
102
SHADEPLOT
 70
     0
102
SHADEPLOTRESLEVEL
 70
     2
102
SHADEPLOTCUSTOMDPI
 70
   300
  0
ENDSEC
  0
EOF
